PrimaNota.ru - самый крупный в мире бесплатный архив песенных текстов, аккордов, табулатур и нот


Throwing Muses - Calm Down, Come Down - текст песни, таба, видео

Регистрация Запомнить меня
Войти через:  Facebook Google Twitter Vk Yandex Mail.ru

Throwing Muses - Calm Down, Come Down - текст песни, таба, видео

Печатать
Просмотров: 151
Авторы музыки: Kristin Hersh
Авторы текста: Kristin Hersh
CALM DOWN, COME DOWN

album version - UNIVERSITY
____________________________________
____________________________________

____________________________________
____________________________________

fig.1:
e----------------------------
b----------------------------
g-5/4-4/2-2------------------
d-----------0-------------0--
a-------------2-2-2-0-0-0----
e----------------------------

fig.2:
e----------------------------
b----------------------------
g----------------------------
d-0-----0-------0-----0------
a---0-2---0-2-3---3-2---0-0--
e----------------------------

fig.3:
e-8/7-7/5-5-----------5-8/7-7/5-5-----------------------------
b-----------8--7----7-------------8--7------------------------
g-----------------7-----------------------------7--------9-7--
d--------------------------------------------------------9-7--
a---------------------------------------------5---------------
e---------------------------------------2/3/5------2/3/5------
____________________________________________________

fig.1 (x2)
____________________________________________________

I think you know the whole thing's a damn shame

I don't wanna calm down

I don't wanna come down
____________________________________________________

fig.1 + fig.2
____________________________________________________

I think you know the whole thing's a damn shame

I don't wanna calm down

I don't wanna come down
____________________________________________________

fig.3 (x2)
Добавлено: 15.08.2015
Другие материалы по этой песне:
  • Аккорды и текст

Страница создана 23.03.2012
http://primanota.ru/throwing-muses/calm-down-come-down-chords.htm
Привет, Гость.
Предлагаем пройти революционный курс по гитаре.
Подарок от PrimaNota.Ru, забирай!