PrimaNota.ru - самый крупный в мире бесплатный архив песенных текстов, аккордов, табулатур и нот


Throwdown - We Will Rise - текст песни, таба, видео

Регистрация Запомнить меня
Войти через:  Facebook Google Twitter Vk Yandex Mail.ru

Throwdown - We Will Rise - текст песни, таба, видео

Печатать
Просмотров: 121
-------------------------------------------------------------------------------
			     WE WILL RISE - Throwdown
-------------------------------------------------------------------------------
Tabbed by: Tim ‘FoeF' Van Wesemael
Email: t_v_w@hotmail.com

Tuning: B F# B E G# C#

We Will Rise from the record Vendetta by Throwdown


Intro
e|---------------------------------------------------------------------------|
B|---------------------------------------------------------------------------|
G|---------------------------------------------------------------------------|
D|-0-0-0-0--0-1-1-1-1—-1/3-3-3-3—-3/5-5-5-5—-5/6-6-6-6--6-6-6-6--6-6-6-6-----|
A|-0-0-0-0--0-1-1-1-1—-1/3-3-3-3—-3/5-5-5-5—-5/6-6-6-6--6-6-6-6--6-6-6-6-----|
E|-0-0-0-0--0-1-1-1-1—-1/3-3-3-3—-3/5-5-5-5—-5/6-6-6-6--6-6-6-6--6-6-6-6-----|
0:13
e|---------------------------------------------------------------------------|
B|---------------------------------------------------------------------------|
G|---------------------------------------------------------------------------|
D|-0-6\-0-0--6\-0-0--6\-0-0--5-7-5-8\7-5-5/7\5-3-3/5-5-----------------------|x2
A|-0-6\-0-0--6\-0-0--6\-0-0--3-5-3-6\5-3-3/5\3-3-3/5-5-----------------------|
E|-0-6\-0-0--6\-0-0--6\-0-0--------------------3-3/5-5-----------------------|
0:34
e|---------------------------------------------------------------------------|
B|---------------------------------------------------------------------------|
G|---------------------------------------------------------------------------|
D|-0-0------------------------0-0--------------------------------------------|
A|-0-0------------------------0-0--------------------------------------------|
E|-0-0-0-0-0-0-0-0-0-0/6-6-6--0-0-0-0-0-0-0-0-0/6-6-6------------------------|
0:39							     
e|---------------------------------------------------------------------------|  
B|---------------------------------------------------------------------------| 
G|---------------------------------------------------------------------------|
D|-0-0----------------------3-3-3-3-0-5-5-5-5--5-3-0-6-----------------------|
A|-0-0----------------------3-3-3-3-0-5-5-5-5--5-3-0-6-----------------------|
E|-0-0-0-0-0-0-0-0-0/6-6-6--3-3-3-3-0-5-5-5-5--5-3-0-6-----------------------|
0:45
e|---------------------------------------------------------------------------|
B|---------------------------------------------------------------------------|
G|---------------------------------------------------------------------------|
D|-0-------------6-6-6--0-0-------------6-6-6--0-------------6-6-6-----------|
A|-0-------------6-6-6--0-0-------------6-6-6--0-------------6-6-6-----------|
E|-0-0-0-0-000-0-6-6-6--0-0-000-0-0-000-6-6-6--0-0-0-0-000-0-6-6-6-----------|
0:53
e|---------------------------------------------------------------------------|
B|---------------------------------------------------------------------------|
G|---------------------------------------------------------------------------|
D|-3-3-3-3-0-5-5-5-5--5-3-0-6\-0-0--6\-0-0--6\-0-0--5-7-5-8\7-5-5/7\5-3-3/5-5|
A|-3-3-3-3-0-5-5-5-5--5-3-0-6\-0-0--6\-0-0--6\-0-0--3-5-3-6\5-3-3/5\3-3-3/5-5|
E|-3-3-3-3-0-5-5-5-5--5-3-0-6\-0-0--6\-0-0--6\-0-0--------------------3-3/5-5|
1:08
e|---------------------------------------------------------------------------|
B|---------------------------------------------------------------------------|
G|---------------------------------------------------------------------------|
D|-6\-0-0--6\-0-0--6\-0-0--5-7-5-8\7-5-5/7\5-3-3/5-5-----------------------|
A|-6\-0-0--6\-0-0--6\-0-0--3-5-3-6\5-3-3/5\3-3-3/5-5-----------------------|
E|-6\-0-0--6\-0-0--6\-0-0--------------------3-3/5-5-----------------------|
1:19
e|---------------------------------------------------------------------------|
B|---------------------------------------------------------------------------|
G|---------------------------------------------------------------------------|
D|-0-0-------------6-6-6--0-0-------------6-6-6—-0-0-------------6-6-6-----------|
A|-0-0-------------6-6-6--0-0-------------6-6-6--0-0-------------6-6-6-----------|
E|-0-0-0-0-0-000-0-6-6-6--0-0-000-0-0-000-6-6-6—-0-0-0-0-0-000-0-6-6-6-----------|
1:27
e|---------------------------------------------------------------------------|
B|---------------------------------------------------------------------------|
G|---------------------------------------------------------------------------|
D|-3-3-3-3-0-5-5-5-5--5-3-0-6--0-------------6-6-6--0-0-------------6-6-6--|
A|-3-3-3-3-0-5-5-5-5--5-3-0-6--0-------------6-6-6--0-0-------------6-6-6----|
E|-3-3-3-3-0-5-5-5-5--5-3-0-6--0-0-0-0-000-0-6-6-6--0-0-000-0-0-000-6-6-6----|



1:37
e|---------------------------------------------------------------------------|
B|---------------------------------------------------------------------------|
G|---------------------------------------------------------------------------|
D|-0--0-0-0-0-0-6-6-6-3-3-3-3-0-5-5-5-5--5-3-0-6\-0-0--6\-0-0--6\------------|
A|-0--0-0-0-0-0-6-6-6-3-3-3-3-0-5-5-5-5--5-3-0-6\-0-0--6\-0-0--6\------------|
E|-0--0-0-0-0-0-6-6-6-3-3-3-3-0-5-5-5-5--5-3-0-6\-0-0--6\-0-0--6\------------|
1:49
e|---------------------------------------------------------------------------|
B|---------------------------------------------------------------------------|
G|---------------------------------------------------------------------------|
D|-5-7-5-8\7-5-5/7\5-3-3/5-5--6\-0-0--6\-0-0--6\--5-7-5-8\7-5-5/7\5-3-3/5-5--|
A|-3-5-3-6\5-3-3/5\3-3-3/5-5--6\-0-0--6\-0-0--6\--3-5-3-6\5-3-3/5\3-3-3/5-5--|
E|-------------------3-3/5-5--6\-0-0--6\-0-0--6\--------------------3-3/5-5--|

2:04
e|---------------------------------------------------------------------------|*: not sure
B|---------------------------------------------------------------------------|  about right 
G|---------------------------------------------------------------------------|  amount of 
D|-0-0-0-0--0-1-1-1-1—-1/3-3-3-3—-3/5-5-5-5—-5/6-6-6-6--6-6-6-6--------------|  strokes
A|-0-0-0-0--0-1-1-1-1—-1/3-3-3-3—-3/5-5-5-5—-5/6-6-6-6--6-6-6-6—8-(x10*)-----|
E|-0-0-0-0--0-1-1-1-1—-1/3-3-3-3—-3/5-5-5-5—-5/6-6-6-6--6-6-6-6--------------|
2:16
e|---------------------------------------------------------------------------|
B|---------------------------------------------------------------------------|
G|---------------------------------------------------------------------------|
D|---------------------------------------------------------------------------|
A|---------------------------------------------------------------------------|
E|-000000000000-0-0-0--000000000000-0-0-0--000000000000-0-0-0----------------|
PM:............	    ............	     ............
2:24
e|---------------------------------------------------------------------------|
B|---------------------------------------------------------------------------|
G|---------------------------------------------------------------------------|
D|------------------2~-------------------------------------------------------|
A|----------------1---1~-----------------------------------------------------|
E|-000000000000-3-------3~0-1~~----------------------------------------------|
PM:............		    
2:27
e|---------------------------------------------------------------------------|
B|---------------------------------------------------------------------------|
G|---------------------------------------------------------------------------|
D|---------------------------------------------------------------------------|
A|---------------------------------------------------------------------------|
E|-000000000000-0-0-0--000000000000-0-0-0--000000000000-0-0-0----------------|
PM:............	    ............	     ............
2:35
e|---------------------------------------------------------------------------|
B|---------------------------------------------------------------------------|
G|---------------------------------------------------------------------------|
D|------------------2~-------------------------------------------------------|
A|----------------1---1~-----------------------------------------------------|
E|-000000000000-3-------3~0-1~~----------------------------------------------|
PM:............		    
2:39
e|---------------------------------------------------------------------------|
B|---------------------------------------------------------------------------|
G|---------------------------------------------------------------------------|
D|-9-10-8-7-0-0--10-8-7-0-0-x8---12-10-9—(x8)--------------------------------|
A|-------------------------------10--8-7-------------------------------------|
E|---------------------------------------------------------------------------|
3:01
e|---------------------------------------------------------------------------|
B|---------------------------------------------------------------------------|
G|---------------------------------------------------------------------------|
D|-3-3-3-0-5-5-5-0-6\-0-0--6\-0-0--6\-0-0--5-7-5-8\7-5-5/7\5-3-3/5-5---------|
A|-3-3-3-0-5-5-5-0-6\-0-0--6\-0-0--6\-0-0--3-5-3-6\5-3-3/5\3-3-3/5-5---------|
E|-3-3-3-0-5-5-5-0-6\-0-0--6\-0-0--6\-0-0--------------------3-3/5-5---------|
3:12
e|---------------------------------------------------------------------------|
B|---------------------------------------------------------------------------|
G|---------------------------------------------------------------------------|
D|-6\-0-0------------6\-0-0------------6\-0-0—-------------------------------|
A|-6\-0-0-000000000--6\-0-0-000000000--6\-0-0-000000000----------------------|
E|-6\-0-0-000000000--6\-0-0-000000000--6\-0-0-000000000----------------------|
PM:	..........        ..........
3:20
e|---------------------------------------------------------------------------|
B|---------------------------------------------------------------------------|
G|---------------------------------------------------------------------------|
D|-5-7-5-8\7-5-5/7\5-3-3/5-5-0-----------------------------------------------|
A|-3-5-3-6\5-3-3/5\3-3-3/5-5-0-----------------------------------------------|
E|-------------------3-3/5-5-0-----------------------------------------------|

Hardcore will never die!

666-Damarus-666

| /  slide up
| \  slide down
| h  hammer-on
| p  pull-off
| ~  vibrato
| +  harmonic
| x  Mute note
===============================================================================

Добавлено: 25.07.2012
Другие материалы по этой песне:

Страница создана 07.04.2012
http://primanota.ru/throwdown/we-will-rise-chords.htm
Привет, Гость.
Предлагаем пройти революционный курс по гитаре.
Подарок от PrimaNota.Ru, забирай!