PrimaNota.ru - самый крупный в мире бесплатный архив песенных текстов, аккордов, табулатур и нот


Throwdown - Venom And Tears - текст песни, таба, видео

Регистрация Запомнить меня
Войти через:  Facebook Google Twitter Vk Yandex Mail.ru

Throwdown - Venom And Tears - текст песни, таба, видео

Печатать
Просмотров: 159
Уроки эстрадного вокала в Санкт-Петербурге
THROWDOWN 
VENOM AND TEARS
C#G#C#F#A#D#

TABBED BY andherembrace


---------------------------------------------------------------|
---------------------------------------------------------------|
---------------------------------------------------------------|
---------)-)---------------------------------------------------|
--------5-5-----------/5-4-3---5----------8---------8-7--------|
-000000-------0-0-3-5--------0/5---5-0-5--8------0--8-7--------|
 ******

---------------------------------------------------------------|
---------------------------------------------------------------|
---------------------------------------------------------------|
---------)-)--------------------------^------------------------|
--------5-5-----------/5-4-3---5-----565---3--3-3--------------|
-000000-------0-0-3-5--------0/5---55565---3--3-3--00-3-/15~~~-|
 ******                            **              **

L
---------------------------------------------------------------|
---------------------------------------------------------------|
---------)((---------------------------------------------------|
--------7-7-----------7-6-5------------------------------------|
--------------------------------5---------8--------8-7---------|
-000000-------0-0-3-5---------0/-----------------0-------------|
 ******
R
---------------------------------------------------------------|
---------------------------------------------------------------|
---------------------------------------------------------------|
---------)-)---------------------------------------------------|
--------5-5-----------/5-4-3---5----------8---------8-7--------|
-000000-------0-0-3-5--------0/5---5-0-5--8------0--8-7--------|
 ******

L
---------------------------------------------------------------|
---------------------------------------------------------------|
---------)-)---------------------------------------------------|
--------7-7-----------7-6-5------------^-----------------------|
--------------------------------5-----565---3--3-3---3-1~------|
-000000-------0-0-3-5---------0/----55--------------0----------|
 ******                             **
R
-------------------------------------------------------------|
-------------------------------------------------------------|
-------------------------------------------------------------|
---------)-)---------------------------^---------------------|
--------5-5-----------/5-4-3----5-----565---3--3-3----3-1----|
-000000-------0-0-3-5---------0/5---55565---3--3-3--0-3-1----|
 ******                             **               *



0:27

---------------------------------------------------------------|
---------------------------------------------------------------|
----------------------------------------------------------R----|
-----------------------------------------------5-5--------PH---|
-8--7---------------------------8--7-----------3-3-------------|
-8\/7\-00-0-0-0-0-0-0-/8-0-/7-0-8\/7\-00-0-0-3-----00-3-5-5~~--|
       ** * * * * * *                 ** * *       ** 

---------------------------------------------------------------|
---------------------------------------------------------------|
---------------------------------------------------------------|
---------------------------------------------------5-5---------|
-8--7-------------------------------8--7-----------3-3-------PH|
-8\/7\-00-0-0-0-0-0-0-8-10-12-8-0--/8\/7\-00-0-0-3-----0-7-6-5~|
       ** * * * * *                       ** * *
---------------------------------------------------------------|
---------------------------------------------------------------|
----------------------------------------------------------R----|
-----------------------------------------------5-5--------PH---|
-8--7---------------------------8--7-----------3-3-------------|
-8\/7\-00-0-0-0-0-0-0-/8-0-/7-0-8\/7\-00-0-0-3-----00-3-5-5~~--|
       ** * * * * * *                 ** * *       ** 

---------------------------------------------------------------|
---------------------------------------------------------------|
---------------------------------------------------------------|
---------------------------------------------------5-5---------|
-8--7-------------------------------8--7-----------3-3---------|
-8\/7\-00-0-0-0-0-0-0-8-10-12-8-0--/8\/7\-00-0-0-3-----0-7-6-5~|
       ** * * * * *                       ** * *

0:54

-----------------------------------------------------------|
-----------------------------------------------------------|
----------------------------------------------5-5-5-5-5-5--|
-7-7-7-7-7-7-7-8-8-8-7-7-7-7------------------7-7-7-7-7-7--|
-5-5-5-5-5-5-5-5-5-5-5-5-5-5-0-5-5-5-5-5-5-5---------------|
-----------------------------0-5-5-5-5-5-5-5---------------|

-----------------------------------------------------------|
-----------------------------------------------------------|
-----------------------------------------------------------|
-7-7-7-7-7-7-7-8-8-8-7-7-7-7------------------5-5-5-5-5-5--|
-5-5-5-5-5-5-5-5-5-5-5-5-5-5-0-5-5-5-5-5-5-5--3-3-3-3-3-3--|
-----------------------------0-5-5-5-5-5-5-5--3-3-3-3-3-3--|



L
---------------------------------------------------------------------|
---------------------------------------------------------------------|
---------------------------------------------------------------------|
-7777----7777----8888--7777--7777---5555--5555--55--55888888--88--88-|
-----5555----5555----55----55----55-----55----55--55--------88--88---|
---------------------------------------------------------------------|

R
-----------------------------------------------------------|
-----------------------------------------------------------|
----------------------------------------------5-5-5-5-5-5--|
-7-7-7-7-7-7-7-8-8-8-7-7-7-7------------------7-7-7-7-7-7--|
-5-5-5-5-5-5-5-5-5-5-5-5-5-5-0-5-5-5-5-5-5-5---------------|
-----------------------------0-5-5-5-5-5-5-5---------------|

L
-------------------------------------------------------------|
-------------------------------------------------------------|
-------------------------------------------------------------|
-7777----7777----8888--7777--7777---5555--55--5555----7------|
-----5555----5555----55----55----55-----55--55----55--5\-----|
-------------------------------------------------------------|

R
-----------------------------------------------------------|
-----------------------------------------------------------|
-----------------------------------------------------__----|
-7-7-7-7-7-7-7-8-8-8-7-7-7-7------------------------/  \---|
-5-5-5-5-5-5-5-5-5-5-5-5-5-5-0-5-5-5-5-5-5-5--88-8-8-10-8--|
-----------------------------0-5-5-5-5-5-5-5--88-8-8-10-8--|



1:22

---------------------------------------------------------------|
---------------------------------------------------------------|
---------------------------------------------------------------|
---------)-)---------------------------------------------------|
--------5-5-----------/5-4-3---5----------8---------8-7--------|
-000000-------0-0-3-5--------0/5---5-0-5--8------0--8-7--------|
 ******

---------------------------------------------------------------|
---------------------------------------------------------------|
---------------------------------------------------------------|
---------)-)--------------------------^------------------------|
--------5-5-----------/5-4-3---5-----565---3--3-3--------------|
-000000-------0-0-3-5--------0/5---55565---3--3-3--00-3-/15~~~-|
 ******                            **              **

L
---------------------------------------------------------------|
---------------------------------------------------------------|
---------)-)---------------------------------------------------|
--------7-7-----------7-6-5------------------------------------|
--------------------------------5---------8--------8-7---------|
-000000-------0-0-3-5---------0/-----------------0-------------|
 ******
R
---------------------------------------------------------------|
---------------------------------------------------------------|
---------------------------------------------------------------|
---------)-)---------------------------------------------------|
--------5-5-----------/5-4-3---5----------8---------8-7--------|
-000000-------0-0-3-5--------0/5---5-0-5--8------0--8-7--------|
 ******

L
---------------------------------------------------------------|
---------------------------------------------------------------|
---------)-)---------------------------------------------------|
--------7-7-----------7-6-5------------^-----------------------|
--------------------------------5-----565---3--3-3---3-1~------|
-000000-------0-0-3-5---------0/----55--------------0----------|
 ******                             **
R
-------------------------------------------------------------|
-------------------------------------------------------------|
-------------------------------------------------------------|
---------)-)---------------------------^---------------------|
--------5-5-----------/5-4-3----5-----565---3--3-3----3-1----|
-000000-------0-0-3-5---------0/5---55565---3--3-3--0-3-1----|
 ******                             **               *


1:48

---------------------------------------------------------------|
---------------------------------------------------------------|
----------------------------------------------------------R----|
-----------------------------------------------5-5--------PH---|
-8--7---------------------------8--7-----------3-3-------------|
-8\/7\-00-0-0-0-0-0-0-/8-0-/7-0-8\/7\-00-0-0-3-----00-3-5-5~~--|
       ** * * * * * *                 ** * *       ** 

---------------------------------------------------------------|
---------------------------------------------------------------|
---------------------------------------------------------------|
---------------------------------------------------5-5---------|
-8--7-------------------------------8--7-----------3-3-------PH|
-8\/7\-00-0-0-0-0-0-0-8-10-12-8-0--/8\/7\-00-0-0-3-----0-7-6-5~|
       ** * * * * *                       ** * *
---------------------------------------------------------------|
---------------------------------------------------------------|
----------------------------------------------------------R----|
-----------------------------------------------5-5--------PH---|
-8--7---------------------------8--7-----------3-3-------------|
-8\/7\-00-0-0-0-0-0-0-/8-0-/7-0-8\/7\-00-0-0-3-----00-3-5-5~~--|
       ** * * * * * *                 ** * *       ** 

---------------------------------------------------------------|
---------------------------------------------------------------|
---------------------------------------------------------------|
---------------------------------------------------5-5---------|
-8--7-------------------------------8--7-----------3-3---------|
-8\/7\-00-0-0-0-0-0-0-8-10-12-8-0--/8\/7\-00-0-0-3-----0-7-6-5~|
       ** * * * * *                       ** * *

2:16
B
-----------------------------------------------------------|
-----------------------------------------------------------|
----------------------------------------------5-5-5-5-5-5--|
-7-7-7-7-7-7-7-8-8-8-7-7-7-7------------------7-7-7-7-7-7--|
-5-5-5-5-5-5-5-5-5-5-5-5-5-5-0-5-5-5-5-5-5-5---------------|
-----------------------------0-5-5-5-5-5-5-5---------------|

L
-------------------------------------------------------------|
-------------------------------------------------------------|
-------------------------------------------------------------|
-7777----7777----8888--7777--7777---5555--55--5555----7------|
-----5555----5555----55----55----55-----55--55----55--5\-----|
-------------------------------------------------------------|

R
----------------------------------------------------------|
----------------------------------------------------------|
----------------------------------------------------------|
-7-7-7-7-7-7-7-8-8-8-7-7-7-7------------------------------|
-5-5-5-5-5-5-5-5-5-5-5-5-5-5-0-5-5-5-5-5-5-5--88-8-10-8-7-|
-----------------------------0-5-5-5-5-5-5-5--88-8-10-8-7-|


2:29

---------------------------------------------------------------|
---------------------------------------------------------------|
---------------------------------------------------------------|
---------)-)---------------------------------------------------|
--------5-5-----------/5-4-3---5----------8---------8-7--------|
-000000-------0-0-3-5--------0/5---5-0-5--8------0--8-7--------|
 ******

---------------------------------------------------------------|
---------------------------------------------------------------|
---------------------------------------------------------------|
---------)-)--------------------------^------------------------|
--------5-5-----------/5-4-3---5-----565---3--3-3--------------|
-000000-------0-0-3-5--------0/5---55565---3--3-3--00-3-/15~~~-|
 ******                            **              **

L
---------------------------------------------------------------|
---------------------------------------------------------------|
---------)((---------------------------------------------------|
--------7-7-----------7-6-5------------------------------------|
--------------------------------5---------8--------8-7---------|
-000000-------0-0-3-5---------0/-----------------0-------------|
 ******
R
---------------------------------------------------------------|
---------------------------------------------------------------|
---------------------------------------------------------------|
---------)-)---------------------------------------------------|
--------5-5-----------/5-4-3---5----------8---------8-7--------|
-000000-------0-0-3-5--------0/5---5-0-5--8------0--8-7--------|
 ******

L
---------------------------------------------------------------|
---------------------------------------------------------------|
---------)-)---------------------------------------------------|
--------7-7-----------7-6-5------------^-----------------------|
--------------------------------5-----565---3--3-3---3-1~------|
-000000-------0-0-3-5---------0/----55--------------0----------|
 ******                             **
R
-------------------------------------------------------------|
-------------------------------------------------------------|
-------------------------------------------------------------|
---------)-)---------------------------^---------------------|
--------5-5-----------/5-4-3----5-----565---3--3-3----3-1----|
-000000-------0-0-3-5---------0/5---55565---3--3-3--0-3-1----|
 ******                             **              *



2:56
-----------------------------------------------------------|
-----------------------------------------------------------|
----------------------------------------------5-5-5-5-5-5--|
-7-7-7-7-7-7-7-8-8-8-7-7-7-7------------------7-7-7-7-7-7--|
-5-5-5-5-5-5-5-5-5-5-5-5-5-5-0-5-5-5-5-5-5-5---------------|
-----------------------------0-5-5-5-5-5-5-5---------------|

-----------------------------------------------------------|
-----------------------------------------------------------|
-----------------------------------------------------------|
-7-7-7-7-7-7-7-8-8-8-7-7-7-7------------------5-5-5-5-5-5--|
-5-5-5-5-5-5-5-5-5-5-5-5-5-5-0-5-5-5-5-5-5-5--3-3-3-3-3-3--|
-----------------------------0-5-5-5-5-5-5-5--3-3-3-3-3-3--|

L
---------------------------------------------------------------------|
---------------------------------------------------------------------|
---------------------------------------------------------------------|
-7777----7777----8888--7777--7777---5555--5555--55--55888888--88--88-|
-----5555----5555----55----55----55-----55----55--55--------88--88---|
---------------------------------------------------------------------|

R
-----------------------------------------------------------|
-----------------------------------------------------------|
----------------------------------------------5-5-5-5-5-5--|
-7-7-7-7-7-7-7-8-8-8-7-7-7-7------------------7-7-7-7-7-7--|
-5-5-5-5-5-5-5-5-5-5-5-5-5-5-0-5-5-5-5-5-5-5---------------|
-----------------------------0-5-5-5-5-5-5-5---------------|

L
--------------------------------------------------------------------|
--------------------------------------------------------------------|
--------------------------------------------------------------------|
-7777----7777----8888--7777--7777---5555--55--5555--5555555555555555|
-----5555----5555----55----55----55-----55--55----55----------------|
--------------------------------------------------------------------|
R
-----------------------------------------------------------|
-----------------------------------------------------------|
-----------------------------------------------------------|
-7-7-7-7-7-7-7-8-8-8-7-7-7-7------------------5-5-5-5-5-5--|
-5-5-5-5-5-5-5-5-5-5-5-5-5-5-0-5-5-5-5-5-5-5--3-3-3-3-3-3--|
-----------------------------0-5-5-5-5-5-5-5--3-3-3-3-3-3--|


3:23

-------------------------------------------------|
-------------------------------------------------|
-------------------------------------------------|
------------------------------------PH-----------|
---------------------------------------)(--------|
-/12~~~~000000-------/12~~~~000000----3----------|
        ******              ******

---------------------------------------------|
---------------------------------------------|
---------------------------------------------|
------------------------7---------5----------|
----------------------5---5-----3---3--------|
-/12~~~~000000----0-5-------5-3-------3------|
        ******

----------------------------------------|
----------------------------------------|
----------------------------------------|
----------------------------------------|
----------------------------------------|
-/12~~~~000000-------/12~~~~000000------|
        ******              ******
---------------------------------------------|
---------------------------------------------|
---------------------------------------------|
------------------------7---------5----------|
----------------------5---5-----3---3--------|
-/12~~~~000000----0-5-------5-3-------3------|
        ******

3:50
L
---------------------------------------------------------------|
---------------------------------------------------------------|
--^--------^--------^--------^--------^------------------------|
-5-7-7777-5-7-7777-5-7-7777-5-7-7777-5-8-888888----------------|
---------------------------------------------------------------|
---------------------------------------------------------------|
     ****     ****     ****     ****     ******
R
---------------------------------------------------------------|
---------------------------------------------------------------|
---------------------------------------------------------------|
--^--------^--------^--------^--------^------------------------|
-3-5-5555-3-5-5555-3-5-5555-3-5-5555-3-6-666666----------------|
---------------------------------------------------------------|
     ****     ****     ****     ****     ******

L
----------------------------------------------------------|
---------------------------------------^------------------|
--^--------^--------^--------^--------8-7-----^-----------|
-5-7-7777-5-7-7777-5-7-7777-5-7-7777------88-8-7-55-------|
----------------------------------------------------------|
----------------------------------------------------------|
     ****     ****     ****     ****      **     **
R
-----------------------------------------------------|
--------------------------------------^------^-------|
-------------------------------------6-5----5-3------|
--^--------^--------^--------^-----------------------|
-3-5-5555-3-5-5555-3-5-5555-3-5-5555-----55-----33---|
-----------------------------------------------------|
     ****     ****     ****     ****     **     **

L
---------------------------------------------------------------|
---------------------------------------------------------------|
--^--------^--------^--------^--------^------------------------|
-5-7-7777-5-7-7777-5-7-7777-5-7-7777-5-8-888888----------------|
---------------------------------------------------------------|
---------------------------------------------------------------|
     ****     ****     ****     ****     ******
R
---------------------------------------------------------------|
---------------------------------------------------------------|
---------------------------------------------------------------|
--^--------^--------^--------^--------^------------------------|
-3-5-5555-3-5-5555-3-5-5555-3-5-5555-3-6-666666----------------|
---------------------------------------------------------------|
     ****     ****     ****     ****     ******

4:00
B                                       L
------------------------------------------------------------------|
------------------------------------------------------------------|
------------------------------------------------------------------|
------------------------------------------------------------------|
-5-5-5-5-5-5-5-5-5-8-8-8-8-8-5-7-8--0--0------------------5-4-3---|
-5-5-5-5-5-5-5-5-5-8-8-8-8-8-5-7-8--0|-0|--000000-0-0-3-5---------|
   * * * * * * * *   * * * *
---------------------------------------------------------------|
---------------------------------------------------------------|
---------------------------------------------------------------|
---------------------------------------------------------------|
---5----------8---------8-7------------------------------------|
-0/5---5-0-5--8------0--8-7------------------------------------|


---------------------------------------------------------------|
---------------------------------------------------------------|
---------------------------------------------------------------|
---------)-)--------------------------^------------------------|
--------5-5-----------/5-4-3---5-----565---3--3-3--------------|
-000000-------0-0-3-5--------0/5---55565---3--3-3--00-3-/15~~~-|
 ******                            **              **

L
---------------------------------------------------------------|
---------------------------------------------------------------|
---------)((---------------------------------------------------|
--------7-7-----------7-6-5------------------------------------|
--------------------------------5---------8--------8-7---------|
-000000-------0-0-3-5---------0/-----------------0-------------|
 ******
R
---------------------------------------------------------------|
---------------------------------------------------------------|
---------------------------------------------------------------|
---------)-)---------------------------------------------------|
--------5-5-----------/5-4-3---5----------8---------8-7--------|
-000000-------0-0-3-5--------0/5---5-0-5--8------0--8-7--------|
 ******

L
---------------------------------------------------------------|
---------------------------------------------------------------|
---------)-)---------------------------------------------------|
--------7-7-----------7-6-5------------^-----------------------|
--------------------------------5-----565---3--3-3---3-1~------|
-000000-------0-0-3-5---------0/----55--------------0----------|
 ******                             **
R
-------------------------------------------------------------|
-------------------------------------------------------------|
-------------------------------------------------------------|
---------)-)---------------------------^---------------------|
--------5-5-----------/5-4-3----5-----565---3--3-3----3-1----|
-000000-------0-0-3-5---------0/5---55565---3--3-3--0-3-1----|
 ******                             **              *


----------------------------------------|
----------------------------------------|
----------------------------------------|
----------------------------------------|
----------------------------------------|
-/12~~~~000000-------/12~~~~000000------|
        ******              ******
--------------------------|
--------------------------|
---------------------3----|
---------------------5----|
------------------5--3--0-|
-/12~~~~000000----5--3--0-|
        ******



---------------------------------------------------------------|
---------------------------------------------------------------|
-------7-----7-------------------------------------------------|
-5-7-8---8-7----3-5-----5--------------------------------------|
--------------------3-5----------------------------------------|
----------------------------------------0----------------------|
Добавлено: 11.08.2013
Другие материалы по этой песне:

Страница создана 18.07.2012
http://primanota.ru/throwdown/venom-and-tears-chords.htm
Привет, Гость.
Предлагаем пройти революционный курс по гитаре.
Подарок от PrimaNota.Ru, забирай!