PrimaNota.ru - самый крупный в мире бесплатный архив песенных текстов, аккордов, табулатур и нот


Through The Eyes Of The Dead - With Eyes Ever Turned Inward - текст песни, таба, бас-таба, видео

Регистрация Запомнить меня
Войти через:  Facebook Google Twitter Vk Yandex Mail.ru

Through The Eyes Of The Dead - With Eyes Ever Turned Inward - текст песни, таба, бас-таба, видео

Печатать
Просмотров: 63
Artist - Through the Eyes of the Dead
Album - Bloodlust
Song - With Eyes ever turned inward
Tabbed By - Bryan H. & Ty B.

Gtr I (B F# B E G# C#) - 'Guitar I'
Gtr II (B F# B E G# C#) - 'Guitar II'
Gtr III (B F# B E G# C#) - 'Solo Guitar'
Gtr IV (B F# B E G# C#) - 'Harmony Guitar'

  Q=210
 4/4
  Gtr I
|-----------------------------|-------------------------------|
|-----------------------------|-------------------------------|
|-----------------------------|-------------------------------|
|-----------------------------|-------------------------------|
|--------5-5--5---------------|--4--4--4----------------------|
|-0-0--0--------7-7--7-0-0--0-|----------7-7--7-3-3--3-7-7--7-|
|
| Gtr II
|-----------------------------|--------------------------------|
|-----------------------------|--------------------------------|
|-----------------------------|--------------------------------|
|-0---------------------------|-(0)----------------------------|
|-0---------------------------|-(0)----------------------------|
|-0---------------------------|-(0)----------------------------|


|------------------------------|-----------------------------|
|------------------------------|-----------------------------|
|------------------------------|-----------------------------|
|------------------------------|-----------------------------|
|---------5-5--5---------------|-4-4--4-5-5--5-7-7--7-8-8--8-|
|-0-0---0--------7-7--7-0-0--0-|-----------------------------|
|
|------------------------------|-----------------------------|
|------------------------------|-----------------------------|
|------------------------------|-----------------------------|
|-0-0-0---0--------------------|-----------------------------|
|-0-0-0---0--------------------|-----------------------------|
|-0-0-0---0--------------------|-----------------------------|


|-----------------------------|-------------------------------|
|-----------------------------|-------------------------------|
|-----------------------------|-------------------------------|
|-----------------------------|-------------------------------|
|--------5-5--5---------------|--4--4--4----------------------|
|-0-0--0--------7-7--7-0-0--0-|----------7-7--7-3-3--3-7-7--7-|
|
|-----------------------------|-------------------------------|
|-----------------------------|-------------------------------|
|-----------------------------|-------------------------------|
|-0---------------------------|-(0)---------------------------|
|-0---------------------------|-(0)---------------------------|
|-0---------------------------|-(0)---------------------------|


|--------------------------------|-------------------------|
|--------------------------------|-------------------------|
|--------------------------------|-------------------------|
|--------------------------------|---------------0-0-0-0-0-|
|---------5-5---5----------------|-4-4--4--------0-0-0-0-0-|
|-0-0---0---------7-7--7-0-0---0-|--------7-7--7-0-0-0-0-0-|
|
|--------------------------------|-------------------------|
|--------------------------------|-------------------------|
|--------------------------------|-------------------------|
|-0-0-0-------0-0-0------0-0-0---|---------------0-0-0-0-0-|
|-0-0-0-------0-0-0------0-0-0---|---------------0-0-0-0-0-|
|-0-0-0-------0-0-0------0-0-0---|---------------0-0-0-0-0-|


|-----------------------------|-----------------------------|
|-----------------------------|-----------------------------|
|-----------------------------|-----------------------------|
|-----------------------------|-----------------------------|
|--------5-5--5---------------|-4-4--4----------------------|
|-0-0--0--------7-7--7-0-0--0-|--------7-7--7-3-3--3-7-7--7-|
|
|-----------------------------|-----------------------------|
|-----------------------------|-----------------------------|
|-----------------------------|-----------------------------|
|-----------------------------|-----------------------------|
|--------5-5--5---------------|-4-4--4----------------------|
|-0-0--0--------7-7--7-0-0--0-|--------7-7--7-3-3--3-7-7--7-|


  Gtrs I, II
|-----------------------------|-----------------------------|
|-----------------------------|-----------------------------|
|-----------------------------|-----------------------------|
|-----------------------------|-----------------------------|
|--------5-5--5---------------|-4-4--4-5-5--5-7-7--7-8-8--8-|
|-0-0--0--------7-7--7-0-0--0-|-----------------------------|


|-----------------------------|-----------------------------|
|-----------------------------|-----------------------------|
|-----------------------------|-----------------------------|
|-----------------------------|-----------------------------|
|--------5-5--5---------------|-4-4--4----------------------|
|-0-0--0--------7-7--7-0-0--0-|--------7-7--7-3-3--3-7-7--7-|


|-----------------------------|-------------------------|
|-----------------------------|-------------------------|
|-----------------------------|-------------------------|
|-----------------------------|---------------0-0-0-3-2-|
|--------5-5--5---------------|-4-4--4--------0-0-0-3-2-|
|-0-0--0--------7-7--7-0-0--0-|--------7-7--7-0-0-0-3-2-|


  Gtr I
|-----------------------------|-----------------------------|
|-----------------------------|-----------------------------|
|-----------------------------|-----------------------------|
|-----------------------------|-----------------------------|
|--------8-8--8-5-5--5--------|-7-7--7-4-4--4-5-5--5-7-7--7-|
|-0-0--0---------------0-0--0-|-----------------------------|
|
| Gtr II
|-----------------------------|-----------------------------|
|-----------------------------|-----------------------------|
|-----------------------------|-----------------------------|
|-----------------------------|-----------------------------|
|--------5-5--5---------------|-4-4--4----------------------|
|-0-0--0--------7-7--7-0-0--0-|--------7-7--7-3-3--3-7-7--7-|


|-----------------------------|-----------------------------------|
|-----------------------------|-----------------------------------|
|-----------------------------|-----------------------------------|
|-----------------------------|-----------------------------------|
|--------8-8--8-5-5--5--------|-7-7--7-8-8--8-10-10--10-12-12--12-|
|-0-0--0---------------0-0--0-|-----------------------------------|
|
|-----------------------------|-----------------------------------|
|-----------------------------|-----------------------------------|
|-----------------------------|-----------------------------------|
|-----------------------------|-----------------------------------|
|--------5-5--5---------------|-4-4--4-5-5--5--7--7---7--8--8---8-|
|-0-0--0--------7-7--7-0-0--0-|-----------------------------------|


|-----------------------------------|-----------------------------------------|
|-----------------------------------|-----------------------------------------|
|-----------------------------------|-----------------------------------------|
|-----------------------------------|-----------------------------------------|
|-----------------------------------|-----------------------------------------|
|-0-0--0-15-15--15-12-12--12-0-0--0-|-14-14--14-11-11--11-12-12--12-14-14--14-|
|
|-----------------------------------|-----------------------------------------|
|-----------------------------------|-----------------------------------------|
|-----------------------------------|-----------------------------------------|
|-----------------------------------|-----------------------------------------|
|---------5--5---5------------------|--4--4---4-------------------------------|
|-0-0--0------------7--7---7-0-0--0-|------------7--7---7--3--3---3--7--7---7-|


                                                                      Q=244
|-----------------------------------|-------------------------------|--------|
|-----------------------------------|-------------------------------|--------|
|-----------------------------------|-------------------------------|--------|
|-----------------------------------|---------------------0-0-0-3-2-|-0------|
|-----------------------------------|---------------------0-0-0-3-2-|-0------|
|-0-0--0-15-15--15-12-12--12-0-0--0-|-14-14--14-12-12--12-0-0-0-3-2-|-0------|
|
|                                                                     \4______
|-----------------------------------|-------------------------------|-5------|
|-----------------------------------|-------------------------------|-3------|
|-----------------------------------|-------------------------------|-2------|
|-----------------------------------|---------------------0-0-0-3-2-|--------|
|---------5--5---5------------------|--4--4---4-----------0-0-0-3-2-|--------|
|-0-0--0------------7--7---7-0-0--0-|------------7--7---7-0-0-0-3-2-|--------|


              5/4
|------------|-----------------|
|------------|-----------------|
|------------|-----------------|
|-(0)--------|-(0)--------(0)--|
|-(0)--------|-(0)--------(0)--|
|-(0)--------|-(0)--------(0)--|
|
|               /
|-(5)--------|-(5)--------(5)--|
|-(3)--------|-(3)--------(3)--|
|-(2)--------|-(2)--------(2)--|
|------------|-----------------|
|------------|-----------------|
|------------|-----------------|


  Q=230
 4/4
|-----------------------|------------------------|
|-----------------------|------------------------|
|-----------------------|------------------------|
|-----------------------|-0-0-0-0-0-0-0-0-0-0-0--|
|-----------------------|-0-0-0-0-0-0-0-0-0-0-0--|
|-----------------------|-0-0-0-0-0-0-0-0-0-0-0--|
|
| |
|-----------------------|------------------------|
|-----------------------|------------------------|
|-----------------------|------------------------|
|-0-0-0-0-0-0-0-0-0-0-0-|------------------------|
|-0-0-0-0-0-0-0-0-0-0-0-|------------------------|
|-0-0-0-0-0-0-0-0-0-0-0-|------------------------|


|-----------------------|------------------|-----------------------|
|-----------------------|------------------|-----------------------|
|-----------------------|------------------|-----------------------|
|-0-0-0-0-0-0-0-0-0-0-0-|------------------|-0-0-0-0-0-0-0-0-0-0-0-|
|-0-0-0-0-0-0-0-0-0-0-0-|-3-----6-------5--|-0-0-0-0-0-0-0-0-0-0-0-|
|-0-0-0-0-0-0-0-0-0-0-0-|---0-0-----0-0----|-0-0-0-0-0-0-0-0-0-0-0-|
|
|-----------------------|------------------|-----------------------|
|-----------------------|------------------|-----------------------|
|-----------------------|------------------|-----------------------|
|-0-0-0-0-0-0-0-0-0-0-0-|------------------|-0-0-0-0-0-0-0-0-0-0-0-|
|-0-0-0-0-0-0-0-0-0-0-0-|-3-------6-----5--|-0-0-0-0-0-0-0-0-0-0-0-|
|-0-0-0-0-0-0-0-0-0-0-0-|---0-0-----0-0----|-0-0-0-0-0-0-0-0-0-0-0-|


|---------------------|-----------------------|-------------------|
|---------------------|-----------------------|-------------------|
|---------------------|-----------------------|-------------------|
|---------------------|-0-0-0-0-0-0-0-0-0-0-0-|-------------------|
|-5-------------------|-0-0-0-0-0-0-0-0-0-0-0-|-3-------6-----5---|
|---5-7-10-3-5----7---|-0-0-0-0-0-0-0-0-0-0-0-|---0-0-----0-0-----|
|
|---------------------|-----------------------|-------------------|
|---------------------|-----------------------|-------------------|
|---------------------|-----------------------|-------------------|
|-0-------------------|-0-0-0-0-0-0-0-0-0-0-0-|-------------------|
|---------------------|-0-0-0-0-0-0-0-0-0-0-0-|-3-----6-------5---|
|---5-7-10-3-5-7-(7)--|-0-0-0-0-0-0-0-0-0-0-0-|---0-0-----0-0-----|


|---------------------------------|---------------------------------|
|---------------------------------|---------------------------------|
|---------------------------------|---------------------------------|
|---------------------------------|-------------------------1---1---|
|-----------------0---0---1---1---|-----------------3---3-----------|
|-1---1---1---1-------------------|-4---4---4---4-------------------|
|
|---------------------------------|---------------------------------|
|---------------------------------|---------------------------------|
|---------------------------------|---------------------------------|
|---------------------------------|-------------------------1-1---1-|
|-----------------0-0---0-1-1---1-|-----------------3-3---3---------|
|-1-1---1-1-1---1-----------------|-4-4---4-4-4---4-----------------|


|-----------------------|------------------|-----------------------|
|-----------------------|------------------|-----------------------|
|-----------------------|------------------|-----------------------|
|-0-0-0-0-0-0-0-0-0-0-0-|------------------|-0-0-0-0-0-0-0-0-0-0-0-|
|-0-0-0-0-0-0-0-0-0-0-0-|-3-----6-------5--|-0-0-0-0-0-0-0-0-0-0-0-|
|-0-0-0-0-0-0-0-0-0-0-0-|---0-0-----0-0----|-0-0-0-0-0-0-0-0-0-0-0-|
|
|-----------------------|------------------|-----------------------|
|-----------------------|------------------|-----------------------|
|-----------------------|------------------|-----------------------|
|-0-0-0-0-0-0-0-0-0-0-0-|------------------|-0-0-0-0-0-0-0-0-0-0-0-|
|-0-0-0-0-0-0-0-0-0-0-0-|-3-------6-----5--|-0-0-0-0-0-0-0-0-0-0-0-|
|-0-0-0-0-0-0-0-0-0-0-0-|---0-0-----0-0----|-0-0-0-0-0-0-0-0-0-0-0-|


|---------------------|-----------------------|-------------------|
|---------------------|-----------------------|-------------------|
|---------------------|-----------------------|-------------------|
|---------------------|-0-0-0-0-0-0-0-0-0-0-0-|-------------------|
|-5-------------------|-0-0-0-0-0-0-0-0-0-0-0-|-3-------6-----5---|
|---5-7-10-3-5----7---|-0-0-0-0-0-0-0-0-0-0-0-|---0-0-----0-0-----|
|
|---------------------|-----------------------|-------------------|
|---------------------|-----------------------|-------------------|
|---------------------|-----------------------|-------------------|
|---------------------|-0-0-0-0-0-0-0-0-0-0-0-|-------------------|
|-5-------------------|-0-0-0-0-0-0-0-0-0-0-0-|-3-----6-------5---|
|---5-7-10-3-5-7-(7)--|-0-0-0-0-0-0-0-0-0-0-0-|---0-0-----0-0-----|


|---------------------------------|---------------------------------|
|---------------------------------|---------------------------------|
|---------------------------------|---------------------------------|
|---------------------------------|-------------------------1---1---|
|-----------------0---0---1---1---|-----------------3---3-----------|
|-1---1---1---1-------------------|-4---4---4---4-------------------|
|
|---------------------------------|---------------------------------|
|---------------------------------|---------------------------------|
|---------------------------------|---------------------------------|
|---------------------------------|-------------------------1-1---1-|
|-----------------0-0---0-1-1---1-|-----------------3-3---3---------|
|-1-1---1-1-1---1-----------------|-4-4---4-4-4---4-----------------|


|---------------------------------|---------------------------------|
|---------------------------------|---------------------------------|
|---------------------------------|---------------------------------|
|---------------------------------|---------------------------------|
|-----------------6---6---5---5---|-5---5---3---3---5---5---6---6---|
|-5---5---5---5-------------------|---------------------------------|
|
|---------------------------------|---------------------------------|
|---------------------------------|---------------------------------|
|---------------------------------|---------------------------------|
|---------------------------------|---------------------------------|
|-----------------6-6---6-5-5---5-|-5-5---5-3-3---3-5-5---5-6-6---6-|
|-5-5---5-5-5---5-----------------|---------------------------------|


|---------------------------------|---------------------------------|
|---------------------------------|---------------------------------|
|---------------------------------|---------------------------------|
|---------------------------------|---------------------------------|
|-----------------3---3---1---1---|-1---1---0---0---1---1-----------|
|-1---1---1---1-------------------|-------------------------4---4---|
|
|---------------------------------|---------------------------------|
|---------------------------------|---------------------------------|
|---------------------------------|---------------------------------|
|---------------------------------|---------------------------------|
|-----------------3-3---3-1-1---1-|-1-1---1-0-0---0-1-1---1---------|
|-1-1---1-1-1---1-----------------|-------------------------4-4---4-|


|---------------------------------|---------------------------------|
|---------------------------------|---------------------------------|
|---------------------------------|---------------------------------|
|---------------------------------|---------------------------------|
|-----------------6---6---5---5---|-5---5---3---3---5---5---6---6---|
|-5---5---5---5-------------------|---------------------------------|
|
|---------------------------------|---------------------------------|
|---------------------------------|---------------------------------|
|---------------------------------|---------------------------------|
|---------------------------------|---------------------------------|
|-----------------6-6---6-5-5---5-|-5-5---5-3-3---3-5-5---5-6-6---6-|
|-5-5---5-5-5---5-----------------|---------------------------------|


|---------------------|---------------------|----------------------------------|
|---------------------|---------------------|----------------------------------|
|---------------------|---------------------|----------------------------------|
|---------------------|---------------------|----------------------------------|
|-------------3---1---|-------------5---6---|-----------------6---6---5---5----|
|-1-1-1-1-1-1---1---1-|-4-4-4-4-4-4---4---4-|-5---5---5---5--------------------|
|
|---------------------|---------------------|----------------------------------|
|---------------------|---------------------|----------------------------------|
|---------------------|---------------------|----------------------------------|
|---------------------|---------------------|----------------------------------|
|-------------3---1---|-------------5---6---|-----------------6-6---6-5-5---5--|
|-1-1-1-1-1-1---1---1-|-4-4-4-4-4-4---4---4-|-5-5---5-5-5---5------------------|


|---------------------------------|---------------------------------|
|---------------------------------|---------------------------------|
|---------------------------------|---------------------------------|
|---------------------------------|---------------------------------|
|-5---5---3---3---5---5---6---6---|-----------------3---3---1---1---|
|---------------------------------|-1---1---1---1-------------------|
|
|---------------------------------|---------------------------------|
|---------------------------------|---------------------------------|
|---------------------------------|---------------------------------|
|---------------------------------|---------------------------------|
|-5-5---5-3-3---3-5-5---5-6-6---6-|-----------------3-3---3-1-1---1-|
|---------------------------------|-1-1---1-1-1---1-----------------|


|---------------------------------|---------------------------------|
|---------------------------------|---------------------------------|
|---------------------------------|---------------------------------|
|---------------------------------|---------------------------------|
|-1---1---0---0---1---1-----------|-----------------6---6---5---5---|
|-------------------------4---4---|-5---5---5---5-------------------|
|
|---------------------------------|---------------------------------|
|---------------------------------|---------------------------------|
|---------------------------------|---------------------------------|
|---------------------------------|---------------------------------|
|-1-1---1-0-0---0-1-1---1---------|-----------------6-6---6-5-5---5-|
|-------------------------4-4---4-|-5-5---5-5-5---5-----------------|


|---------------------------------|---------------------|----------------------|
|---------------------------------|---------------------|----------------------|
|---------------------------------|---------------------|----------------------|
|---------------------------------|---------------------|----------------------|
|-5---5---3---3---5---5---6---6---|-------------3---1---|-------------5---6----|
|---------------------------------|-1-1-1-1-1-1---1---1-|-4-4-4-4-4-4---4---4--|
|
|---------------------------------|---------------------|----------------------|
|---------------------------------|---------------------|----------------------|
|---------------------------------|---------------------|----------------------|
|---------------------------------|---------------------|----------------------|
|-5-5---5-3-3---3-5-5---5-6-6---6-|-------------3---1---|-------------5---6----|
|---------------------------------|-1-1-1-1-1-1---1---1-|-4-4-4-4-4-4---4---4--|


|-----------------------|------------------|-----------------------|
|-----------------------|------------------|-----------------------|
|-----------------------|------------------|-----------------------|
|-0-0-0-0-0-0-0-0-0-0-0-|------------------|-0-0-0-0-0-0-0-0-0-0-0-|
|-0-0-0-0-0-0-0-0-0-0-0-|-3-----6-------5--|-0-0-0-0-0-0-0-0-0-0-0-|
|-0-0-0-0-0-0-0-0-0-0-0-|---0-0-----0-0----|-0-0-0-0-0-0-0-0-0-0-0-|
|
|-----------------------|------------------|-----------------------|
|-----------------------|------------------|-----------------------|
|-----------------------|------------------|-----------------------|
|-0-0-0-0-0-0-0-0-0-0-0-|------------------|-0-0-0-0-0-0-0-0-0-0-0-|
|-0-0-0-0-0-0-0-0-0-0-0-|-3-------6-----5--|-0-0-0-0-0-0-0-0-0-0-0-|
|-0-0-0-0-0-0-0-0-0-0-0-|---0-0-----0-0----|-0-0-0-0-0-0-0-0-0-0-0-|


|---------------------|-----------------------|-------------------|
|---------------------|-----------------------|-------------------|
|---------------------|-----------------------|-------------------|
|-0-------------------|-0-0-0-0-0-0-0-0-0-0-0-|-------------------|
|---------------------|-0-0-0-0-0-0-0-0-0-0-0-|-3-------6-----5---|
|---5-7-10-3-5----7---|-0-0-0-0-0-0-0-0-0-0-0-|---0-0-----0-0-----|
|
|---------------------|-----------------------|-------------------|
|---------------------|-----------------------|-------------------|
|---------------------|-----------------------|-------------------|
|-0-------------------|-0-0-0-0-0-0-0-0-0-0-0-|-------------------|
|---------------------|-0-0-0-0-0-0-0-0-0-0-0-|-3-----6-------5---|
|---5-7-10-3-5-7-(7)--|-0-0-0-0-0-0-0-0-0-0-0-|---0-0-----0-0-----|


|---------------------------------|---------------------------------|
|---------------------------------|---------------------------------|
|---------------------------------|---------------------------------|
|---------------------------------|-------------------------1---1---|
|-----------------0---0---1---1---|-----------------3---3-----------|
|-1---1---1---1-------------------|-4---4---4---4-------------------|
|
|---------------------------------|---------------------------------|
|---------------------------------|---------------------------------|
|---------------------------------|---------------------------------|
|---------------------------------|-------------------------1-1---1-|
|-----------------0-0---0-1-1---1-|-----------------3-3---3---------|
|-1-1---1-1-1---1-----------------|-4-4---4-4-4---4-----------------|


|-----------------------|------------------|-----------------------|
|-----------------------|------------------|-----------------------|
|-----------------------|------------------|-----------------------|
|-0-0-0-0-0-0-0-0-0-0-0-|------------------|-0-0-0-0-0-0-0-0-0-0-0-|
|-0-0-0-0-0-0-0-0-0-0-0-|-3-----6-------5--|-0-0-0-0-0-0-0-0-0-0-0-|
|-0-0-0-0-0-0-0-0-0-0-0-|---0-0-----0-0----|-0-0-0-0-0-0-0-0-0-0-0-|
|
|-----------------------|------------------|-----------------------|
|-----------------------|------------------|-----------------------|
|-----------------------|------------------|-----------------------|
|-0-0-0-0-0-0-0-0-0-0-0-|------------------|-0-0-0-0-0-0-0-0-0-0-0-|
|-0-0-0-0-0-0-0-0-0-0-0-|-3-------6-----5--|-0-0-0-0-0-0-0-0-0-0-0-|
|-0-0-0-0-0-0-0-0-0-0-0-|---0-0-----0-0----|-0-0-0-0-0-0-0-0-0-0-0-|


|---------------------|-----------------------|-------------------|
|---------------------|-----------------------|-------------------|
|---------------------|-----------------------|-------------------|
|---------------------|-0-0-0-0-0-0-0-0-0-0-0-|-------------------|
|-5-------------------|-0-0-0-0-0-0-0-0-0-0-0-|-3-------6-----5---|
|---5-7-10-3-5----7---|-0-0-0-0-0-0-0-0-0-0-0-|---0-0-----0-0-----|
|
|---------------------|-----------------------|-------------------|
|---------------------|-----------------------|-------------------|
|---------------------|-----------------------|-------------------|
|---------------------|-0-0-0-0-0-0-0-0-0-0-0-|-------------------|
|-5-------------------|-0-0-0-0-0-0-0-0-0-0-0-|-3-----6-------5---|
|---5-7-10-3-5-7-(7)--|-0-0-0-0-0-0-0-0-0-0-0-|---0-0-----0-0-----|


                                   3/4
|---------------------------------|-------------------------|------|
|---------------------------------|-------------------------|------|
|---------------------------------|-------------------------|------|
|---------------------------------|-------------------------|-4----|
|-----------------0---0---1---1---|-----------------3---3---|------|
|-1---1---1---1-------------------|-4---4---4---4-----------|------|
|
|---------------------------------|-------------------------|------|
|---------------------------------|-------------------------|------|
|---------------------------------|-------------------------|------|
|---------------------------------|-------------------------|-1----|
|-----------------0-0---0-1-1---1-|-----------------3-3---3-|------|
|-1-1---1-1-1---1-----------------|-4-4---4-4-4---4---------|------|


             Q=170
|----------|-----------------|-----------------|-----------------|
|----------|-----------------|-----------------|-----------------|
|----------|-----------------|-----------------|-----------------|
|-(4)------|-0-0-0-0-0-0-0-0-|-0-0-0-0-0-0-0-0-|-0-0-0-0-0-0-0-0-|
|----------|-0-0-0-0-0-0-0-0-|-0-0-0-0-0-0-0-0-|-0-0-0-0-0-0-0-0-|
|----------|-0-0-0-0-0-0-0-0-|-0-0-0-0-0-0-0-0-|-0-0-0-0-0-0-0-0-|
|
|----------|-----------------|-----------------|-----------------|
|----------|-----------------|-----------------|-----------------|
|----------|-----------------|-----------------|-----------------|
|-(1)------|-0-0-0-0-0-0-0-0-|-0-0-0-0-0-0-0-0-|-0-0-0-0-0-0-0-0-|
|----------|-0-0-0-0-0-0-0-0-|-0-0-0-0-0-0-0-0-|-0-0-0-0-0-0-0-0-|
|----------|-0-0-0-0-0-0-0-0-|-0-0-0-0-0-0-0-0-|-0-0-0-0-0-0-0-0-|


  Gtrs I, II
|-----------------|-----------------|-----------------|-----------------|
|-----------------|-----------------|-----------------|-----------------|
|-----------------|-----------------|-----------------|-----------------|
|-0-0-0-0-0-0-0-0-|-0-0-0-0-0-0-0-0-|-0-0-0-0-0-0-0-0-|-0-0-0-0-0-0-0-0-|
|-0-0-0-0-0-0-0-0-|-0-0-0-0-0-0-0-0-|-0-0-0-0-0-0-0-0-|-0-0-0-0-0-0-0-0-|
|-0-0-0-0-0-0-0-0-|-0-0-0-0-0-0-0-0-|-0-0-0-0-0-0-0-0-|-0-0-0-0-0-0-0-0-|


  Gtr I
|-----------------|-----------------|-----------------|-----------------|
|-----------------|-----------------|-----------------|-----------------|
|-----------------|-----------------|-----------------|-----------------|
|-0-0-0-0-0-0-0-0-|-0-0-0-0-0-0-0-0-|-0-0-0-0-0-0-----|-0-0-0-0-0-0-0-0-|
|-0-0-0-0-0-0-0-0-|-0-0-0-0-0-0-0-0-|-0-0-0-0-0-0-5---|-0-0-0-0-0-0-0-0-|
|-0-0-0-0-0-0-0-0-|-0-0-0-0-0-0-0-0-|-0-0-0-0-0-0---4-|-0-0-0-0-0-0-0-0-|
|
| Gtr II
|-----------------|-----------------|-----------------|-----------------|
|-----------------|-----------------|-----------------|-----------------|
|-----------------|-----------------|-----------------|-----------------|
|-0-0-0-0-0-0-0-0-|-0-0-0-0-0-0-----|-0-0-0-0-0-0-0-0-|-0-0-0-0-0-0-----|
|-0-0-0-0-0-0-0-0-|-0-0-0-0-0-0-6---|-0-0-0-0-0-0-0-0-|-0-0-0-0-0-0-6---|
|-0-0-0-0-0-0-0-0-|-0-0-0-0-0-0---5-|-0-0-0-0-0-0-0-0-|-0-0-0-0-0-0---5-|


|-----------------|-----------------|-----------------|-----------------|
|-----------------|-----------------|-----------------|-----------------|
|-----------------|-----------------|-----------------|-----------------|
|-0-0-0-0-0-0-----|-0-0-0-0-0-0-0-0-|-0-0-0-0-0-0-----|-0-0-0-0-0-0-0-0-|
|-0-0-0-0-0-0-5---|-0-0-0-0-0-0-0-0-|-0-0-0-0-0-0-3-6-|-0-0-0-0-0-0-0-0-|
|-0-0-0-0-0-0---4-|-0-0-0-0-0-0-0-0-|-0-0-0-0-0-0-----|-0-0-0-0-0-0-0-0-|
|
|-----------------|-----------------|-----------------|-----------------|
|-----------------|-----------------|-----------------|-----------------|
|-----------------|-----------------|-----------------|-----------------|
|-0-0-0-0-0-0-0-0-|-0-0-0-0-0-0-----|-0-0-0-0-0-0-0-0-|-0-0-0-0-0-0-----|
|-0-0-0-0-0-0-0-0-|-0-0-0-0-0-0-6---|-0-0-0-0-0-0-0-0-|-0-0-0-0-0-0-6---|
|-0-0-0-0-0-0-0-0-|-0-0-0-0-0-0---5-|-0-0-0-0-0-0-0-0-|-0-0-0-0-0-0---5-|


|-------------2--|-----------------|-----------------|-----------------|
|-----------4----|-----------------|-----------------|-----------------|
|----------------|-----------------|-----------------|-----------------|
|-0-0-0-0-0------|-0-0-0-0-0-0-0-0-|-0-0-0-0-0-0-0---|-0-0-0-0-0-0-0-0-|
|-0-0-0-0-0------|-0-0-0-0-0-0-0-0-|-0-0-0-0-0-0-----|-0-0-0-0-0-0-0-0-|
|-0-0-0-0-0------|-0-0-0-0-0-0-0-0-|-0-0-0-0-0-0---4-|-0-0-0-0-0-0-0-0-|
|
|----------------|-----------------|-----------------|-----------------|
|----------------|-----------------|-----------------|-----------------|
|----------------|-----------------|-----------------|-----------------|
|-0-0-0-0-0------|-0-0-0-0-0-0-----|-0-0-0-0-0-0-0-0-|-0-0-0-0-0-0-----|
|-0-0-0-0-0-3-5--|-0-0-0-0-0-0-6---|-0-0-0-0-0-0-0-0-|-0-0-0-0-0-0-6---|
|-0-0-0-0-0------|-0-0-0-0-0-0---5-|-0-0-0-0-0-0-0-0-|-0-0-0-0-0-0---5-|


|-----------------|-----------------|-----------------|-----------------|
|-----------------|-----------------|-----------------|-----------------|
|-----------------|-----------------|-----------------|-----------------|
|-0-0-0-0-0-0-----|-0-0-0-0-0-0-0-0-|-0-0-0-0-0-0-----|-0-0-0-0-0-0-0-0-|
|-0-0-0-0-0-0-5---|-0-0-0-0-0-0-0-0-|-0-0-0-0-0-0-3-6-|-0-0-0-0-0-0-0-0-|
|-0-0-0-0-0-0---4-|-0-0-0-0-0-0-0-0-|-0-0-0-0-0-0-----|-0-0-0-0-0-0-0-0-|
|
|-----------------|-----------------|-----------------|-----------------|
|-----------------|-----------------|-----------------|-----------------|
|-----------------|-----------------|-----------------|-----------------|
|-0-0-0-0-0-0-0-0-|-0-0-0-0-0-0-----|-0-0-0-0-0-0-0-0-|-0-0-0-0-0-0-----|
|-0-0-0-0-0-0-0-0-|-0-0-0-0-0-0-6---|-0-0-0-0-0-0-0-0-|-0-0-0-0-0-0-6---|
|-0-0-0-0-0-0-0-0-|-0-0-0-0-0-0---5-|-0-0-0-0-0-0-0-0-|-0-0-0-0-0-0---5-|


|----------------|-----------------|-----|
|-----------4-7--|-----------------|-----|
|----------------|-----------------|-----|
|-0-0-0-0-0------|-0-0-0-0-0-0-0-0-|-----|
|-0-0-0-0-0------|-0-0-0-0-0-0-0-0-|-----|
|-0-0-0-0-0------|-0-0-0-0-0-0-0-0-|-----|
|
|----------------|-----------------|-----|
|----------------|-----------------|-----|
|----------------|-----------------|-----|
|-0-0-0-0-0------|-0-0-0-0-0-0-0-0-|-----|
|-0-0-0-0-0-3-5--|-0-0-0-0-0-0-0-0-|-----|
|-0-0-0-0-0------|-0-0-0-0-0-0-0-0-|-----|


 4/4
|---------------------------------|----------------------------------|
|---------------------------------|----------------------------------|
|---------------------------------|----------------------------------|
|---------------------------------|----------------------------------|
|-----------------0-------1-------|-----------------1-------3--------|
|-1-1-1-1-1-1-1-1---1-1-1---1-1-1-|-1-1-1-1-1-1-1-1---1-1-1---1-1-1--|
|
|---------------------------------|----------------------------------|
|---------------------------------|----------------------------------|
|---------------------------------|----------------------------------|
|-------------------------0-------|-----------------0-------1--------|
|-----------------4---------------|----------------------------------|
|-1-1-1-1-1-1-1-1---1-1-1---1-1-1-|-1-1-1-1-1-1-1-1---1-1-1---1-1-1--|


|------------------|--------------------|----------------------------------|
|------------------|--------------------|----------------------------------|
|---------6--8-----|---5--8---9--8-5--8-|----------------------------------|
|-0-0-0-0-x--x-0-0-|-0-x--x-0-x--x-x--x-|----------------------------------|
|-0-0-0-0-3--5-0-0-|-0-3--5-0-6--5-3--5-|-----------------3-------1--------|
|-0-0-0-0------0-0-|-0------0-----------|-1-1-1-1-1-1-1-1---1-1-1---1-1-1--|
|
|------------------|--------------------|----------------------------------|
|---------6--8-----|---6--8---9--8-6--8-|----------------------------------|
|---------x--x-----|---x--x---x--x-x--x-|----------------------------------|
|-0-0-0-0-3--5-0-0-|-0-3--5-0-6--5-3--5-|-----------------1-------0--------|
|-0-0-0-0------0-0-|-0------0-----------|----------------------------------|
|-0-0-0-0------0-0-|-0------0-----------|-1-1-1-1-1-1-1-1---1-1-1---1-1-1--|


|---------------------------------|-----------------|--------------------|
|---------------------------------|-----------------|--------------------|
|---------------------------------|---------6-8-----|---5-8---9-8-5-8----|
|---------------------------------|-0-0-0-0-x-x-0-0-|-0-x-x-0-x-x-x-x----|
|-----------------0-------1-------|-0-0-0-0-3-5-0-0-|-0-3-5-0-6-5-3-5----|
|-1-1-1-1-1-1-1-1---1-1-1---1-1-1-|-0-0-0-0-----0-0-|-0-----0------------|
|
|---------------------------------|-----------------|--------------------|
|---------------------------------|---------6-8-----|---6-8---9-8-6-8----|
|---------------------------------|---------x-x-----|---x-x---x-x-x-x----|
|-------------------------0-------|-0-0-0-0-3-5-0-0-|-0-3-5-0-6-5-3-5----|
|-----------------3---------------|-0-0-0-0-----0-0-|-0-----0------------|
|-1-1-1-1-1-1-1-1---1-1-1---1-1-1-|-0-0-0-0-----0-0-|-0-----0------------|


|---------------------------------|---------------------------------|
|---------------------------------|---------------------------------|
|---------------------------------|---------------------------------|
|---------------------------------|---------------------------------|
|-----------------0-------1-------|-----------------1-------3-------|
|-1-1-1-1-1-1-1-1---1-1-1---1-1-1-|-1-1-1-1-1-1-1-1---1-1-1---1-1-1-|
|
|---------------------------------|---------------------------------|
|---------------------------------|---------------------------------|
|---------------------------------|---------------------------------|
|-------------------------0-------|-----------------0-------1-------|
|-----------------4---------------|---------------------------------|
|-1-1-1-1-1-1-1-1---1-1-1---1-1-1-|-1-1-1-1-1-1-1-1---1-1-1---1-1-1-|


|-----------------|-----------------|------------------------------------|
|-----------------|-----------------|------------------------------------|
|---------6-8-----|---5-8---9-8-5-8-|------------------------------------|
|-0-0-0-0-x-x-0-0-|-0-x-x-0-x-x-x-x-|------------------------------------|
|-0-0-0-0-3-5-0-0-|-0-3-5-0-6-5-3-5-|-----------------3-------1----------|
|-0-0-0-0-----0-0-|-0-----0---------|-1-1-1-1-1-1-1-1---1-1-1---1-1-1----|
|
|-----------------|-----------------|------------------------------------|
|---------6-8-----|---6-8---9-8-6-8-|------------------------------------|
|---------x-x-----|---x-x---x-x-x-x-|------------------------------------|
|-0-0-0-0-3-5-0-0-|-0-3-5-0-6-5-3-5-|-----------------1-------0----------|
|-0-0-0-0-----0-0-|-0-----0---------|------------------------------------|
|-0-0-0-0-----0-0-|-0-----0---------|-1-1-1-1-1-1-1-1---1-1-1---1-1-1----|


|---------------------------------|-----------------------------|
|---------------------------------|-----------------------------|
|---------------------------------|-----------------------------|
|---------------------------------|-----------------------------|
|-----------------1-------0-------|-0---0---0---0---3-5-0---0---|
|-1-1-1-1-1-1-1-1---1-1-1---1-1-1-|-0---0---0---0-------0---0---|
|
|---------------------------------|-----------------------------|
|---------------------------------|-----------------------------|
|---------------------------------|-----------------------------|
|-----------------0---------------|-0-0-0-0-0-0-0-0-0---0-0-0---|
|-------------------------3-------|-0-0-0-0-0-0-0-0-0---0-0-0---|
|-1-1-1-1-1-1-1-1---1-1-1---1-1-1-|-0-0-0-0-0-0-0-0-0---0-0-0---|


|----------------|----------------------------|----------------|
|----------------|----------------------------|----------------|
|----------------|----------------------------|----------------|
|----------------|----------------------------|----------------|
|--3-5-0-6-5-3-5-|-0---0---0---0---3-5-0---0--|--3-5-0-6-5-3-5-|
|------0---------|-0---0---0---0-------0---0--|------0---------|
|
|----------------|----------------------------|----------------|
|----------------|----------------------------|----------------|
|----------------|----------------------------|----------------|
|----------0-0-0-|-0-0-0-0-0-0-0-0-0---0-0-0--|----------0-0-0-|
|----------0-0-0-|-0-0-0-0-0-0-0-0-0---0-0-0--|----------0-0-0-|
|----------0-0-0-|-0-0-0-0-0-0-0-0-0---0-0-0--|----------0-0-0-|


|----------------------------|----------------|-----------------------------|
|----------------------------|----------------|-----------------------------|
|----------------------------|----------------|-----------------------------|
|----------------------------|----------------|-----------------------------|
|-0---0---0---0---3-5-0---0--|--3-5-0-6-5-3-5-|-0---0---0---0---3-5-0---0---|
|-0---0---0---0-------0---0--|------0---------|-0---0---0---0-------0---0---|
|
|----------------------------|----------------|-----------------------------|
|----------------------------|----------------|-----------------------------|
|----------------------------|----------------|-----------------------------|
|-0-0-0-0-0-0-0-0-0---0-0-0--|----------0-0-0-|-0-0-0-0-0-0-0-0-0---0-0-0---|
|-0-0-0-0-0-0-0-0-0---0-0-0--|----------0-0-0-|-0-0-0-0-0-0-0-0-0---0-0-0---|
|-0-0-0-0-0-0-0-0-0---0-0-0--|----------0-0-0-|-0-0-0-0-0-0-0-0-0---0-0-0---|


                   Q=182
|----------------|---------------------------------|
|----------------|---------------------------------|
|----------------|---------------------------------|
|----------------|---------------------------------|
|--3-5-0-6-5-3-5-|-----------------6---6-----------|
|------0---------|-1---1---5---5-----------5---5---|
|
|----------------|---------------------------------|
|----------------|---------------------------------|
|----------------|---------------------------------|
|----------0-0-0-|---------------------------------|
|----------0-0-0-|-----------------6-6---6---------|
|----------0-0-0-|-1-1---1-5-5---5---------5-5---5-|


|---------------------------------|---------------------------------|
|---------------------------------|---------------------------------|
|---------------------------------|---------------------------------|
|---------------------------------|---------------------------------|
|-----------------5---5-----------|-----------------3---3-----------|
|-0---0---4---4-----------4---4---|-1---1---5---5-----------5---5---|
|
|---------------------------------|---------------------------------|
|---------------------------------|---------------------------------|
|---------------------------------|---------------------------------|
|---------------------------------|---------------------------------|
|-----------------5-5---5---------|-----------------3-3---3---------|
|-0-0---0-4-4---4---------4-4---4-|-1-1---1-5-5---5---------5-5---5-|


|---------------------------------|---------------------------------|
|---------------------------------|---------------------------------|
|---------------------------------|---------------------------------|
|---------------------------------|---------------------------------|
|---------------------------------|-----------------6---6-----------|
|-8---8---7---7---5---5---4---4---|-1---1---5---5-----------5---5---|
|
|---------------------------------|---------------------------------|
|---------------------------------|---------------------------------|
|---------------------------------|---------------------------------|
|---------------------------------|---------------------------------|
|---------------------------------|-----------------6-6---6---------|
|-8-8---8-7-7---7-5-5---5-4-4---4-|-1-1---1-5-5---5---------5-5---5-|


|---------------------------------|----------------------|-------------------|
|---------------------------------|----------------------|-------------------|
|---------------------------------|-8-8-8-10-10-11-11-13-|-13-11-11-10-10----|
|---------------------------------|-x-x-x--x--x--x--x--x-|--x--x--x--x--x----|
|-----------------5---5-----------|-5-6-6--8--8--9--9-11-|-11--9--9--8--8----|
|-0---0---4---4-----------4---4---|----------------------|-------------------|
|
|---------------------------------|----------------------|-------------------|
|---------------------------------|-6-7-7--9--9-11-11-12-|-12-11-11--9--9----|
|---------------------------------|-x-x-x--x--x--x--x--x-|--x--x--x--x--x----|
|---------------------------------|-3-4-4--6--6--8--8--9-|--9--8--8--6--6----|
|-----------------5-5---5---------|----------------------|-------------------|
|-0-0---0-4-4---4---------4-4---4-|----------------------|-------------------|


  Q=182
|---------------------------------|---------------------------------|
|---------------------------------|---------------------------------|
|---------------------------------|---------------------------------|
|---------------------------------|---------------------------------|
|-----------------6---6-----------|-----------------5---5-----------|
|-1---1---5---5-----------5---5---|-0---0---4---4-----------4---4---|
|
|---------------------------------|---------------------------------|
|---------------------------------|---------------------------------|
|---------------------------------|---------------------------------|
|---------------------------------|---------------------------------|
|-----------------6-6---6---------|-----------------5-5---5---------|
|-1-1---1-5-5---5---------5-5---5-|-0-0---0-4-4---4---------4-4---4-|


|---------------------------------|---------------------------------|
|---------------------------------|---------------------------------|
|---------------------------------|---------------------------------|
|---------------------------------|---------------------------------|
|-----------------3---3-----------|---------------------------------|
|-1---1---5---5-----------5---5---|-8---8---7---7---5---5---4---4---|
|
|---------------------------------|---------------------------------|
|---------------------------------|---------------------------------|
|---------------------------------|---------------------------------|
|---------------------------------|---------------------------------|
|-----------------3-3---3---------|---------------------------------|
|-1-1---1-5-5---5---------5-5---5-|-8-8---8-7-7---7-5-5---5-4-4---4-|


|---------------------------------|---------------------------------|
|---------------------------------|---------------------------------|
|---------------------------------|---------------------------------|
|---------------------------------|---------------------------------|
|-----------------6---6-----------|-----------------5---5-----------|
|-1---1---5---5-----------5---5---|-0---0---4---4-----------4---4---|
|
|---------------------------------|---------------------------------|
|---------------------------------|---------------------------------|
|---------------------------------|---------------------------------|
|---------------------------------|---------------------------------|
|-----------------6-6---6---------|-----------------5-5---5---------|
|-1-1---1-5-5---5---------5-5---5-|-0-0---0-4-4---4---------4-4---4-|


                                             Q=134
|----------------------|-------------------|-------------------------|
|----------------------|-------------------|-------------------------|
|-8-8-8-10-10-11-11-13-|-13-11-11-10-10----|-------------------------|
|-x-x-x--x--x--x--x--x-|--x--x--x--x--x----|-0-0-0-0-0-0-0-0-0-0-0-0-|
|-5-6-6--8--8--9--9-11-|-11--9--9--8--8----|-0-0-0-0-0-0-0-0-0-0-0-0-|
|----------------------|-------------------|-0-0-0-0-0-0-0-0-0-0-0-0-|
|
|----------------------|-------------------|-------------------------|
|-6-7-7--9--9-11-11-12-|-12-11-11--9--9----|-------------------------|
|-x-x-x--x--x--x--x--x-|--x--x--x--x--x----|-------------------------|
|-3-4-4--6--6--8--8--9-|--9--8--8--6--6----|-0-----------------------|
|----------------------|-------------------|-0-----------------------|
|----------------------|-------------------|-0-----------------------|


|--------------------------|-------------------------|-------------------------|
|--------------------------|-------------------------|-------------------------|
|--------------------------|-------------------------|-------------------------|
|-0-0-0-(0)--0-0-0-4-5-4---|-0-0-0-0-0-0-0-0-0-0-0-0-|-0-0-0-(0)--0-0-0-4-5--7-|
|-0-0-0-(0)--0-0-0-------6-|-0-0-0-0-0-0-0-0-0-0-0-0-|-0-0-0-(0)--0-0-0--------|
|-0-0-0-(0)--0-0-0---------|-0-0-0-0-0-0-0-0-0-0-0-0-|-0-0-0-(0)--0-0-0--------|
|
|--------------------------|-------------------------|-------------------------|
|--------------------------|-------------------------|-------------------------|
|--------------------------|-------------------------|-------------------------|
|-0-0-0-(0)--0-0-0-7-8-7-5-|-0-0-0-0-0-0-0-0-0-0-0-0-|-0-0-0-(0)--0-0-0-7-8-10-|
|-0-0-0-(0)--0-0-0---------|-0-0-0-0-0-0-0-0-0-0-0-0-|-0-0-0-(0)--0-0-0--------|
|-0-0-0-(0)--0-0-0---------|-0-0-0-0-0-0-0-0-0-0-0-0-|-0-0-0-(0)--0-0-0--------|


|-------------------------|
|-------------------------|
|-------------------------|
|-0-0-0-0-0-0-0-0-0-0-0-0-|
|-0-0-0-0-0-0-0-0-0-0-0-0-|
|-0-0-0-0-0-0-0-0-0-0-0-0-|
|
|-------------------------|
|-------------------------|
|-------------------------|
|-0-0-0-0-0-0-0-0-0-0-0-0-|
|-0-0-0-0-0-0-0-0-0-0-0-0-|
|-0-0-0-0-0-0-0-0-0-0-0-0-|


|------------------------------|--------------------------|
|------------------------------|--------------------------|
|------------------------------|--------------------------|
|-0-0-0-(0)--0-0-0-------------|-0-0-0-0-0-0-0-0-0-0-0-0--|
|-0-0-0-(0)--0-0-0--9-10--9--6-|-0-0-0-0-0-0-0-0-0-0-0-0--|
|-0-0-0-(0)--0-0-0-------------|-0-0-0-0-0-0-0-0-0-0-0-0--|
|
|------------------------------|--------------------------|
|------------------------------|--------------------------|
|------------------------------|--------------------------|
|-0-0-0-(0)--0-0-0-------------|-0-0-0-0-0-0-0-0-0-0-0-0--|
|-0-0-0-(0)--0-0-0-12-13-12-10-|-0-0-0-0-0-0-0-0-0-0-0-0--|
|-0-0-0-(0)--0-0-0-------------|-0-0-0-0-0-0-0-0-0-0-0-0--|


|---------------------------|-------------------------|
|---------------------------|-------------------------|
|---------------------------|-------------------------|
|-0-0-0-(0)--0-0-0--4--5--7-|-0-0-0-0-0-0-0-0-0-0-0-0-|
|-0-0-0-(0)--0-0-0----------|-0-0-0-0-0-0-0-0-0-0-0-0-|
|-0-0-0-(0)--0-0-0----------|-0-0-0-0-0-0-0-0-0-0-0-0-|
|
|---------------------------|-------------------------|
|---------------------------|-------------------------|
|---------------------------|-------------------------|
|-0-0-0-(0)--0-0-0----------|-0-0-0-0-0-0-0-0-0-0-0-0-|
|-0-0-0-(0)--0-0-0-12-13-15-|-0-0-0-0-0-0-0-0-0-0-0-0-|
|-0-0-0-(0)--0-0-0----------|-0-0-0-0-0-0-0-0-0-0-0-0-|


|------------------------------|
|------------------------------|
|------------------------------|
|-0-0-0-(0)--0-0-0-------------|
|-0-0-0-(0)--0-0-0--9-10--9--6-|
|-0-0-0-(0)--0-0-0-------------|
|
|------------------------------|
|------------------------------|
|------------------------------|
|-0-0-0-(0)--0-0-0-------------|
|-0-0-0-(0)--0-0-0-12-13-12-10-|
|-0-0-0-(0)--0-0-0-------------|

.:|SOLO|:.

  Gtrs I, II
|--------------------------------------------|
|--------------------------------------------|
|--------------------------------------------|
|--0-----------------------------------------|
|--0-----------------------------------------|
|--0-----------------------------------------|
|
| Gtr III
|-15h17p15-14-15-14--------------------14----|
|-------------------16-15-15-15--15-16----16-|
|--------------------------------------------|
|--------------------------------------------|
|--------------------------------------------|
|--------------------------------------------|


|----------------------------------------------------|
|----------------------------------------------------|
|----------------------------------------------------|
|--1-------------------------------------------------|
|--1-------------------------------------------------|
|--1-------------------------------------------------|
|
|-14-15-17-15-14h15p14----14-------------------------|
|----------------------16----16-15-13----------------|
|-------------------------------------15-14-12-11-12-|
|----------------------------------------------------|
|----------------------------------------------------|
|----------------------------------------------------|


|-------------------------------|------------------------------------------------|
|-------------------------------|------------------------------------------------|
|-------------------------------|------------------------------------------------|
|--4----------------------------|--5---------------------5-5-(5)-------5---------|
|--4----------------------------|--5---------------------5-5-(5)-------5---------|
|--4----------------------------|--5---------------------5-5-(5)-------5---------|
|
|-------------------------------|------------------------------------------------|
|-------------------------------|------------------------------------------------|
|-11---11h12p11-----------------|------------------------------------------------|
|---------------13-12-10-12-13--|-12h13p10-12--12h13p10-12---12h13p10-12---------|
|-------------------------------|------------------------------------------------|
|-------------------------------|------------------------------------------------|


|-----------------------------------------|
|-----------------------------------------|
|-----------------------------------------|
|--0--------------------------------------|
|--0--------------------------------------|
|--0--------------------------------------|
|
|-----------------------------------------|
|-----------------------------------------|
|-------------------------------11-12-11--|
|----------------10-12-13-12-13-----------|
|-13-12-10-12-13--------------------------|
|-----------------------------------------|


|---------------------------------|
|---------------------------------|
|---------------------------------|
|--1------------------------------|
|--1------------------------------|
|--1------------------------------|
|
|---------------------------------|
|---------------------------------|
|-11h12p11----11------------------|
|----------13----13-12-10---12-13-|
|---------------------------------|
|---------------------------------|
|
| Gtr IV
|---------------------------------|
|---------------------------------|
|---------------------------------|
|---------------------------------|
|---------------------------------|
|---------------------------------|


|----------------------------------------------------------|
|----------------------------------------------------------|
|----------------------------------------------------------|
|--4-------------------------------------------------------|
|--4-------------------------------------------------------|
|--4-------------------------------------------------------|
|
|-22h23p22-19----------22h23p22-19----------22h23p22-19----|
|-------------23-21-23-------------23-21-23-------------23-|
|----------------------------------------------------------|
|----------------------------------------------------------|
|----------------------------------------------------------|
|----------------------------------------------------------|
|
|----------------------------------------------------------|
|-19h20p19-16----------19h20p19-16----------19h20p19-16----|
|-------------19-16-19-------------19-16-19-------------19-|
|----------------------------------------------------------|
|----------------------------------------------------------|
|----------------------------------------------------------|


|------------------------------------------|
|------------------------------------------|
|------------------------------------------|
|--5--------------------------0--0--(0)--0-|
|--5--------------------------0--0--(0)--0-|
|--5--------------------------0--0--(0)--0-|
|
|-------22h23p22-19----------22-23-(23)-24-|
|-21-23-------------23-21-23---------------|
|------------------------------------------|
|------------------------------------------|
|------------------------------------------|
|------------------------------------------|
|
|----------------------------14-15-(15)-16-|
|-------19h20p19-16------------------------|
|-16-19-------------19-16-19---------------|
|------------------------------------------|
|------------------------------------------|
|------------------------------------------|


|-------------------------------------|
|-------------------------------------|
|-------------------------------------|
|-0-----------------------------------|
|-0-----------------------------------|
|-0-----------------------------------|
|
|-------------------------------------|
|-------------------------------------|
|-7-7-11-7-8-7-11-7-8-7-11-7-8-7-11-7-|
|-------------------------------------|
|-------------------------------------|
|-------------------------------------|
|
|-------------------------------------|
|-------------------------------------|
|-------------------------------------|
|-------------------------------------|
|-------------------------------------|
|-------------------------------------|


|-----------------------------------------|
|-----------------------------------------|
|-----------------------------------------|
|--1--------------------------------------|
|--1--------------------------------------|
|--1--------------------------------------|
|
|-----------------------------------------|
|-----------------------------------------|
|-11-8-12-8-11-8-12-8-11-8-12-8-11-8-12-8-|
|-----------------------------------------|
|-----------------------------------------|
|-----------------------------------------|


|-------------------------------------------------|
|-------------------------------------------------|
|-------------------------------------------------|
|--4----------------------------------------------|
|--4----------------------------------------------|
|--4----------------------------------------------|
|
|-------------------------------------------------|
|-------------------------------------------------|
|-12-11-14-11-12-11-14-11-12-11-14-11-12-11-14-11-|
|-------------------------------------------------|
|-------------------------------------------------|
|-------------------------------------------------|


|-------------------------------------|
|-------------------------------------|
|-------------------------------------|
|--5-----------------------5--5-(5)-5-|
|--5-----------------------5--5-(5)-5-|
|--5-----------------------5--5-(5)-5-|
|
|-------------------------------------|
|-------------------------------------|
|-14-12-15-12-14-12-15-12-15-14-12----|
|-------------------------------------|
|-------------------------------------|
|-------------------------------------|


|--------------------|---------------------|----------------|
|--------------------|---------------------|----------------|
|--------------------|---------------------|----------------|
|--0-----------------|--1------------------|--4-------------|
|--0-----------------|--1------------------|--4-------------|
|--0-----------------|--1------------------|--4-------------|
|
|                                                      ~~
|--------------------|---------------------|----------------|
|--------------------|---------------------|----------------|
|-11--12-12-11-------|----------------12---|-11b12r===11----|
|--------------10----|-12-12-13-12-13------|----------------|
|--------------------|---------------------|----------------|
|--------------------|---------------------|----------------|


                            Q=190
  Gtr I
|-------------------------|-----------------------------|
|-------------------------|-----------------------------|
|-------------------------|-----------------------------|
|--5-----------0-0--(0)-0-|-----------------------------|
|--5-----------0-0--(0)-0-|--------5-5--5---------------|
|--5-----------0-0--(0)-0-|-0-0--0--------7-7--7-0-0--0-|
|
| Gtr II
|-------------------------|-----------------------------|
|-------------------------|-----------------------------|
|-------------------------|-----------------------------|
|--5-----------0-0--(0)-0-|-0---------------------------|
|--5-----------0-0--(0)-0-|-0---------------------------|
|--5-----------0-0--(0)-0-|-0---------------------------|
|
| Gtr III
|                    ~~~~
|-------------------------|-----------------------------|
|-------------------------|-----------------------------|
|-15-14-12-11-12---[12]---|-----------------------------|
|-------------------------|-----------------------------|
|-------------------------|-----------------------------|
|-------------------------|-----------------------------|


|-------------------------------|------------------------------|
|-------------------------------|------------------------------|
|-------------------------------|------------------------------|
|-------------------------------|------------------------------|
|--4--4--4----------------------|---------5-5--5---------------|
|----------7-7--7-3-3--3-7-7--7-|-0-0---0--------7-7--7-0-0--0-|
|
|-------------------------------|------------------------------|
|-------------------------------|------------------------------|
|-------------------------------|------------------------------|
|-(0)---------------------------|-0-0-0---0--------------------|
|-(0)---------------------------|-0-0-0---0--------------------|
|-(0)---------------------------|-0-0-0---0--------------------|


|-----------------------------|-----------------------------|
|-----------------------------|-----------------------------|
|-----------------------------|-----------------------------|
|-----------------------------|-----------------------------|
|-4-4--4-5-5--5-7-7--7-8-8--8-|--------5-5--5---------------|
|-----------------------------|-0-0--0--------7-7--7-0-0--0-|
|
|-----------------------------|-----------------------------|
|-----------------------------|-----------------------------|
|-----------------------------|-----------------------------|
|-----------------------------|-0---------------------------|
|-----------------------------|-0---------------------------|
|-----------------------------|-0---------------------------|


|-------------------------------|--------------------------------|
|-------------------------------|--------------------------------|
|-------------------------------|--------------------------------|
|-------------------------------|--------------------------------|
|--4--4--4----------------------|---------5-5---5----------------|
|----------7-7--7-3-3--3-7-7--7-|-0-0---0---------7-7--7-0-0---0-|
|
|-------------------------------|--------------------------------|
|-------------------------------|--------------------------------|
|-------------------------------|--------------------------------|
|-(0)---------------------------|-0-0-0-------0-0-0------0-0-0---|
|-(0)---------------------------|-0-0-0-------0-0-0------0-0-0---|
|-(0)---------------------------|-0-0-0-------0-0-0------0-0-0---|


|-------------------------|---------------------------------|
|-------------------------|---------------------------------|
|-------------------------|---------------------------------|
|---------------0-0-0-0-0-|---------------------------------|
|-4-4--4--------0-0-0-0-0-|---------5-5---5-----------------|
|--------7-7--7-0-0-0-0-0-|-0-0---0---------7-7---7-0-0---0-|
|
|-------------------------|---------------------------------|
|-------------------------|---------------------------------|
|-------------------------|---------------------------------|
|---------------0-0-0-0-0-|-0-0-0---0-0-0---0-0-0---0-0-0---|
|---------------0-0-0-0-0-|-0-0-0---0-0-0---0-0-0---0-0-0---|
|---------------0-0-0-0-0-|-0-0-0---0-0-0---0-0-0---0-0-0---|


|---------------------------------|----------------------------------|
|---------------------------------|----------------------------------|
|---------------------------------|----------------------------------|
|---------------------------------|----------------------------------|
|-4-4---4-------------------------|----------5--5---5----------------|
|---------7-7---7-3-3---3-7-7---7-|-0-0---0-----------7-7--7-0-0---0-|
|
|---------------------------------|----------------------------------|
|---------------------------------|----------------------------------|
|---------------------------------|----------------------------------|
|-0-0-0---0-0-0---0-0-0---0-0-0---|-0-0-0---(0)---0-0-0------0-0-0---|
|-0-0-0---0-0-0---0-0-0---0-0-0---|-0-0-0---(0)---0-0-0------0-0-0---|
|-0-0-0---0-0-0---0-0-0---0-0-0---|-0-0-0---(0)---0-0-0------0-0-0---|


|-------------------------------|---------------------------------|
|-------------------------------|---------------------------------|
|-------------------------------|---------------------------------|
|-------------------------------|---------------------------------|
|-4-4--4-5-5--5-7-7---7-8-8---8-|---------5-5---5-----------------|
|-------------------------------|-0-0---0---------7-7---7-0-0---0-|
|
|-------------------------------|---------------------------------|
|-------------------------------|---------------------------------|
|-------------------------------|---------------------------------|
|---------------0-0-0---0---0---|-0-0-0---0-0-0---0-0-0---0-0-0---|
|---------------0-0-0---0---0---|-0-0-0---0-0-0---0-0-0---0-0-0---|
|---------------0-0-0---0---0---|-0-0-0---0-0-0---0-0-0---0-0-0---|


|---------------------------------|----------------------------------|
|---------------------------------|----------------------------------|
|---------------------------------|----------------------------------|
|---------------------------------|----------------------------------|
|-4-4---4-------------------------|----------5--5---5----------------|
|---------7-7---7-3-3---3-7-7---7-|-0-0---0-----------7-7--7-0-0---0-|
|
|---------------------------------|----------------------------------|
|---------------------------------|----------------------------------|
|---------------------------------|----------------------------------|
|-0-0-0---0-0-0---0-0-0---0-0-0---|-0-0-0---(0)---0-0-0------0-0-0---|
|-0-0-0---0-0-0---0-0-0---0-0-0---|-0-0-0---(0)---0-0-0------0-0-0---|
|-0-0-0---0-0-0---0-0-0---0-0-0---|-0-0-0---(0)---0-0-0------0-0-0---|


|-------------------------|---------------------------------|
|-------------------------|---------------------------------|
|-------------------------|---------------------------------|
|---------------0-0-0-0-0-|---------------------------------|
|-4-4--4--------0-0-0-0-0-|---------5-5---5-----------------|
|--------7-7--7-0-0-0-0-0-|-0-0---0---------7-7---7-0-0---0-|
|
|-------------------------|---------------------------------|
|-------------------------|---------------------------------|
|-------------------------|---------------------------------|
|---------------0-0-0-0-0-|-0-0-0---0-0-0---0-0-0---0-0-0---|
|---------------0-0-0-0-0-|-0-0-0---0-0-0---0-0-0---0-0-0---|
|---------------0-0-0-0-0-|-0-0-0---0-0-0---0-0-0---0-0-0---|


|---------------------------------|----------------------------------|
|---------------------------------|----------------------------------|
|---------------------------------|----------------------------------|
|---------------------------------|----------------------------------|
|-4-4---4-------------------------|----------5--5---5----------------|
|---------7-7---7-3-3---3-7-7---7-|-0-0---0-----------7-7--7-0-0---0-|
|
|---------------------------------|----------------------------------|
|---------------------------------|----------------------------------|
|---------------------------------|----------------------------------|
|-0-0-0---0-0-0---0-0-0---0-0-0---|-0-0-0---(0)---0-0-0------0-0-0---|
|-0-0-0---0-0-0---0-0-0---0-0-0---|-0-0-0---(0)---0-0-0------0-0-0---|
|-0-0-0---0-0-0---0-0-0---0-0-0---|-0-0-0---(0)---0-0-0------0-0-0---|


|-------------------------------|---------------------------------|
|-------------------------------|---------------------------------|
|-------------------------------|---------------------------------|
|-------------------------------|---------------------------------|
|-4-4--4-5-5--5-7-7---7-8-8---8-|---------5-5---5-----------------|
|-------------------------------|-0-0---0---------7-7---7-0-0---0-|
|
|-------------------------------|---------------------------------|
|-------------------------------|---------------------------------|
|-------------------------------|---------------------------------|
|---------------0-0-0---0---0---|-0-0-0---0-0-0---0-0-0---0-0-0---|
|---------------0-0-0---0---0---|-0-0-0---0-0-0---0-0-0---0-0-0---|
|---------------0-0-0---0---0---|-0-0-0---0-0-0---0-0-0---0-0-0---|


|---------------------------------|-------------------------|---------------*|
|---------------------------------|-------------------------|---------------*|
|---------------------------------|-------------------------|---------------*|
|---------------------------------|-0-0-0-(0)--0-0-0--0-0-0-|-----0-0-0-0-0-*|
|-4-4---4-------------------------|-0-0-0-(0)--0-0-0--0-0-0-|-----0-0-0-0-0-*|
|---------7-7---7-3-3---3-7-7---7-|-0-0-0-(0)--0-0-0--0-0-0-|-----0-0-0-0-0-*|
|
|---------------------------------|-------------------------|---------------*|
|---------------------------------|-------------------------|---------------*|
|---------------------------------|-------------------------|---------------*|
|-0-0-0---0-0-0---0-0-0---0-0-0---|-0-0-0-(0)--0-0-0--0-0-0-|-----0-0-0-0-0-*|
|-0-0-0---0-0-0---0-0-0---0-0-0---|-0-0-0-(0)--0-0-0--0-0-0-|-----0-0-0-0-0-*|
|-0-0-0---0-0-0---0-0-0---0-0-0---|-0-0-0-(0)--0-0-0--0-0-0-|-----0-0-0-0-0-*|


Tablature Legend
----------------
 h   - hammer-on
 p   - pull-off
 b   - bend
 pb  - pre-bend
 r   - bend release (if no number after the r, then release immediately)
 /\  - slide into or out of (from/to "nowhere")
 s   - legato slide
 S   - shift slide
  - natural harmonic
[n]  - artificial harmonic
n(n) - tapped harmonic
 ~   - vibrato
 tr  - trill
 T   - tap
 TP  - trem. picking
 PM  - palm muting
\n/  - tremolo bar dip; n = amount to dip
 \n  - tremolo bar down
 n/  - tremolo bar up
/n\  - tremolo bar inverted dip
 =   - hold bend; also acts as connecting device for hammers/pulls
 <>  - volume swell (louder/softer)
 x   - on rhythm slash represents muted slash
 o   - on rhythm slash represents single note slash

Misc Legend
-----------
 |  - bar
||  - double bar
||o - repeat start
o|| - repeat end
*|  - double bar (ending)
 :  - bar (freetime)
 $  - Segno
 &  - Coda
Добавлено: 24.10.2013
Другие материалы по этой песне:
  • Аккорды и текст

Страница создана 23.03.2012
http://primanota.ru/through-the-eyes-of-the-dead/with-eyes-ever-turned-inward-chords.htm
Привет, Гость.
Предлагаем пройти революционный курс по гитаре.
Подарок от PrimaNota.Ru, забирай!