PrimaNota.ru - самый крупный в мире бесплатный архив песенных текстов, аккордов, табулатур и нот


Through The Eyes Of The Dead - When Things Become Nothing - таба, видео

Регистрация Запомнить меня
Войти через:  Facebook Google Twitter Vk Yandex Mail.ru

Through The Eyes Of The Dead - When Things Become Nothing - таба, видео

Печатать
Просмотров: 62
Band – Through the Eyes of the Dead
Album – Bloodlust
Song – When Things Become Nothing
Tabbed by - Bryan H.
E-Mail - OTTERS592@aol.com

Note: I know that this is definitely not perfect, especially on some parts to the solo, 
else should be rather hard to pick out any mistaken tablature. Also I am not sure about 
tuning the guitar is in. I have this on Guitar Pro if you are interested in that.

****RIFF #1****

Guitar #1
E|----------------------------------------|
C|----------------------------------------|
G|----------------------------------------|
C|0-0-5-8-7-0-0-7-10-8-0-0-5-8-7-0-0-0-3-2|
G|0-0-------0-0--------0-0-------0-0------|
C|0-0-------0-0--------0-0-------0-0------|


|---------------------11-8|
|-------------------------|
|-------------------------|
|0-0-5-8-7--0-0-7-10-8----|
|0-0--------0-0-----------|
|0-0--------0-0-----------|


|-------------------------------------|
|12-10-12-10-9------------------------|
|-------------14-16-14-12-11--11-12-11|
|---------------------------12--------|
|-------------------------------------|
|-------------------------------------|

|----------------------------------------|
|----------------------------------------|
|----------------------------------------|
|0-0-5-8-7-0-0-7-10-8-0-0-5-8-7-0-0-0-3-2|
|0-0-------0-0--------0-0-------0-0------|
|0-0-------0-0--------0-0-------0-0------|

|-------------------------|
|-------------------------|
|---------------------12-9|
|0-0-5-8-7--0-0-7-10-8----|
|0-0--------0-0-----------|
|0-0--------0-0-----------|

|------------------------------|
|------------------------------|
|------------------------------|
|10-8-10-8-7-------------------|
|-----------10-12-10-8-7--7-8-7|
|-----------------------12-----|


|----------------------------------------|
|----------------------------------------|
|----------------------------------------|
|0-0-5-8-7-0-0-7-10-8-0-0-5-8-7-0-0-0-3-2|
|0-0-------0-0--------0-0-------0-0------|
|0-0-------0-0--------0-0-------0-0------|

|-------------------------|
|-------------------------|
|---------------------12-9|
|0-0-5-8-7--0-0-7-10-8----|
|0-0--------0-0-----------|
|0-0--------0-0-----------|

|------------------------------|
|------------------------------|
|------------------------------|
|10-8-10-8-7-------------------|
|-----------10-12-10-8-7--7-8-7|
|-----------------------12-----|

|------------------------|
|------------------------|
|------------------------|
|0-0-5-8-7--0-0-7-10-8---|
|0-0--------0-0-------7-5|
|0-0--------0-0----------|

|-----------------------------|
|-----------------------------|
|-----------------------------|
|-----------------------------|
|-----------------------------|
|10-8-10-8-7-5-7-5-3-2-0-2-3-2|

|----------------------------------------|
|----------------------------------------|
|----------------------------------------|
|0-0-------0-0--------0-0-------0-0------|
|0-0-5-8-7-0-0-7-10-8-0-0-5-8-7-0-0-0-3-2|
|0-0-5-8-7-0-0-7-10-8-0-0-5-8-7-0-0-0-3-2|

|-------------------------|
|-------------------------|
|---------------------12-9|
|0-0-5-8-7--0-0-7-10-8----|
|0-0--------0-0-----------|
|0-0--------0-0-----------|

|------------------------------|
|------------------------------|
|------------------------------|
|10-8-10-8-7-------------------|
|-----------10-12-10-8-7--7-8-7|
|-----------------------12-----|

|----------------------------------------|
|----------------------------------------|
|----------------------------------------|
|0-0-5-8-7-0-0-7-10-8-0-0-5-8-7-0-0-0-3-2|
|0-0-------0-0--------0-0-------0-0------|
|0-0-------0-0--------0-0-------0-0------|

|----------------------------------------|
|----------------------------------------|
|----------------------------------------|
|0-0-5-8-7-0-0-7-10-8-0-0-5-8-7-0-0-0-3-2|
|0-0-------0-0--------0-0-------0-0------|
|0-0-------0-0--------0-0-------0-0------|

Guitar #2
E|---------------------------------|
C|---------------------------------|
G|---------------------------------|
C|0-0---0-0---0-0---0-0---0-0---0-0|
G|0-0---0-0---0-0---0-0---0-0---0-0|
C|0-0---0-0---0-0---0-0---0-0---0-0|

|----------------------------------|
|----------------------------------|
|----------------------------------|
|12-8-7----7-----------------------|
|-------10---10-8-7-8-7-5-3-1-3-5-3|
|----------------------------------|


|---------------------------------|
|---------------------------------|
|---------------------------------|
|0-0---0-0---0-0---0-0---0-0---0-0|
|0-0---0-0---0-0---0-0---0-0---0-0|
|0-0---0-0---0-0---0-0---0-0---0-0|

|---------------------------------|
|---------------------------------|
|---------------------------------|
|12-8-7---7-----------------------|
|------10---10-8-7-8-7-5-3-1-3-5-3|
|---------------------------------|

|--------------------------------------|
|--------------------------------------|
|--------------------------------------|
|0-0----0-0----0-0----0-0----0-0----0-0|
|0-0----0-0----0-0----0-0----0-0----0-0|
|0-0----0-0----0-0----0-0----0-0----0-0|

|--------------------------------|
|--------------------------------|
|--------------------------------|
|12-8-7--7-----------------------|
|------10--10-8-7-8-7-5-3-1-3-5-3|
|--------------------------------|

|------------------------------------|
|------------------------------------|
|------------------------------------|
|0-0---0-0---0-0---------0-0---------|
|0-0---0-0---0-0--1-1-1--0-0--0-0-0--|
|0-0---0-0---0-0--1-1-1--0-0—0-0-0---|

|--------------------------------|
|--------------------------------|
|--------------------------------|
|0-0-5-8-7--0-0-7-10-8--0-0---0-0|
|0-0--------0-0---------0-0---0-0|
|0-0--------0-0---------0-0---0-0|

|-------------------------------------|
|-------------------------------------|
|-------------------------------------|
|0-0---0-0----0-0---------0-0---------|
|0-0---0-0----0-0--1-1-1--0-0--0-0-0--|
|0-0---0-0----0-0--1-1-1--0-0—0-0-0---|

|---------------------------------|
|---------------------------------|
|---------------------------------|
|0-0-5-8-7--0-0-7-10-8---0-0---0-0|
|0-0--------0-0----------0-0---0-0|
|0-0--------0-0----------0-0---0-0|

****RIFF #2****

guitar #1 (alone)
|-------------------------------|
|-------------------------------|
|-------------------------------|
|-------------------------------|
|0-0-3-0-5-0-3-5/7—7/8—8/-------|
|0-0-3-0-5-0-3-5/7—7/8—8/-------|

Guitar 1 & 2 Together


|---------------------------|
|---------------------------|
|---------------------------|
|---------------------------|
|0-0-5-0-7-0-5-7/8-8/10-10/-|
|0-0-5-0-7-0-5-7/8-8/10-10/-|
|
|
|
|------------------------|
|------------------------|
|------------------------|
|------------------------|
|0-0-3-0-5-0-3-5/7-7/8-8/|
|0-0-3-0-5-0-3-5/7-7/8-8/|
	     Repeat 3 times

|-----------------------------|
|-----------------------------|
|-----------------------------|
|-------5-5-7-7-5-5-----------|
|5-5-8-8-----------8-8-7-7-8-8|
|-----------------------------|
|
|
|
|--------------------------|
|--------------------------|
|--------------------4-4---|
|---3-3-2-2-3-3---3-3---3-3|
|1-1-----------3-3---------|
|--------------------------|
|
|
|
|-----------------------------|
|-----------------------------|
|-----------------------------|
|-------5-5-7-7-5-5-----------|
|5-5-8-8-----------8-8-7-7-8-8|
|-----------------------------|
|
|
|
|--------------------------|
|--------------------------|
|--------------------4-4---|
|---3-3-2-2-3-3---3-3---0-0|
|1-1-----------3-3------0-0|
|-----------------------0-0|



Repeat all of riff 2 again except “Guitar #1 Alone”

****RIFF #3****

Guitar #1
|-------------------------------------|
|-------------------------------------|
|-------------------------------------|
|0--0---0--0------0--0---0--0---------|
|0--0---0--0------0--0---0--0---------|
|0--0---0--0------0--0---0--0--7--5--2|
 Repeat Twice


|---------------------|
|---------------------|
|---------------------|
|0--0-------0--0------|
|0--0-------0--0------|
|0--0-------0--0------|
	    Repeat Twice


|-----------------------|
|-----------------------|
|-----------------------|
|0--0------0--0---------|
|0--0------0--0---------|
|0--0------0--0--7--5--2|


Guitar #2
|---------------------------------------|
|---------------------------------------|
|---------------------------------------|
|(0)-(0)-------(0)-(0)------------------|
|(0)-(0)-0-0-0-(0)-(0)-0-0-0-0-0-0-0-0-0|
|(0)-(0)-0-0-0-(0)-(0)-0-0-0-0-0-0-0-0-0|
|
|
|
|-----------------------------------|
|-----------------------------------|
|-----------------------------------|
|(0)-(0)-------(0)-(0)--------------|
|(0)-(0)-0-0-0-(0)-(0)--8----7-----4|
|(0)-(0)-0-0-0-(0)-(0)--------------|
			  Repeat Twice


|---------------------------------------|
|---------------------------------------|
|---------------------------------------|
|(0)-(0)-------(0)-(0)------------------|
|(0)-(0)-0-0-0-(0)-(0)-0-0-0-0-0-0-0-0-0|
|(0)-(0)-0-0-0-(0)-(0)-0-0-0-0-0-0-0-0-0|
			       Repeat Once


|---------------------------------------|
|---------------------------------------|
|---------------------------------------|
|(0)-(0)-------(0)-(0)------------------|
|(0)-(0)-0-0-0-(0)-(0)-0-0-0-0-0-0-0-0-0|
|(0)-(0)-0-0-0-(0)-(0)-0-0-0-0-0-0-0-0-0|
|
|
|
|---------------------------------|
|---------------------------------|
|---------------------------------|
|(0)-(0)-------(0)-(0)------------|
|(0)-(0)-0-0-0-(0)-(0)--8---7----4|
|(0)-(0)-0-0-0-(0)-(0)------------|


****RIFF #4****

Guitar #1
|------------------------------------------|
|------------------------------------------|
|-----------------------------9-x-x-6-x-x-7|
|0-0--3--0-0-0-0--5--0-0-0--7--------------|
|0-0-4---0-0-0-0-7---0-0-0-8---------------|
|0-0-----0-0-0-0-----0-0-0-----------------|
|
|
|
|-------------------------------------------|
|-------------------------------------------|
|-----------------------------9-7-6-4-6-4---|
|0-0--2--0-0-0-0--4--0-0-0---6-----------5-2|
|0-0-3---0-0-0-0-5---0-0-0--7---------------|
|0-0-----0-0-0-0-----0-0-0------------------|
				     Repeat Once


Guitar #2
|------------------------------------------|
|------------------------------------------|
|------------------------------------------|
|0-0--3--0-0-0-0--5--0-0-0--7-9-x-x-5-x-x-7|
|0-0-4---0-0-0-0-7---0-0-0-8---------------|
|0-0-----0-0-0-0-----0-0-0-----------------|
|
|
|
|-----------------------------------------|
|-----------------------------------------|
|-----------------------------------------|
|0-0--2-0-0-0-0--4-0-0-0--6-8-7-5-3-5-3---|
|0-0-3--0-0-0-0-5--0-0-0-7-------------7-3|
|0-0----0-0-0-0----0-0-0------------------|
     Repeat Once

****RIFF #5****

Guitar 1 & 2 Together
|--------------------------------|
|--------------------------------|
|--------------------------------|
|--------------------------------|
|--------------------------------|
|-0-0-0-0-0-0-0-0-0-0-0-0-5-5-8-8|

|--------------------------------|
|--------------------------------|
|--------------------------------|
|--------------------------------|
|--------------------------------|
|-7-7-7-7-2-2-2-2-3-3-3-3-2-2-5-5|


|--------------------------------|
|--------------------------------|
|--------------------------------|
|--------------------------------|
|--------------------------------|
|-0-0-0-0-0-0-0-0-0-0-0-0-5-5-8-8|

|--------------------------------|
|--------------------------------|
|--------------------------------|
|--------------------------------|
|---------------------3-3-6-6-5-5|
|-7-7-7-7-2-2-2-2-3-3------------|
		       Repeat Once

****FILL****

Guitar #1
|---------------------------|
|---------------------------|
|-7-----------------2-2-----|
|-7--------3--------0-0-----|
|-5--------3--------0-0-----|
|----------3--------0-0-----|

Guitar #2
|---------------------------|
|---------------------------|
|---------------------------|
|-7--------3--------0-0-----|
|-7--------3--------0-0-----|
|-7--------3--------0-0-----|


****RIFF #6****

Guitars 1 & 2 together
|---------------------------------------|
|---------------------------------------|
|---------------------------------------|
|-0--------0-0--0--0--0--------0-0--0--0|
|-0--0-0-0-0-0--0--0--0--0-0-0-0-0--0--0|
|-0--0-0-0-0-0--0--0--0--0-0-0-0-0--0--0|

|---------------------------------------|
|---------------------------------------|
|---------------------------------------|
|-0--------0-0--0--0--0--------0-1--3--2|
|-0--0-0-0-0-0--0--0--0--0-0-0-0-1--3--2|
|-0--0-0-0-0-0--0--0--0--0-0-0-0-1--3--2|

|---------------------------------------|
|---------------------------------------|
|---------------------------------------|
|-0--------0-0--0--0--0--------0-0--0--0|
|-0--0-0-0-0-0--0--0--0--0-0-0-0-0--0--0|
|-0--0-0-0-0-0--0--0--0--0-0-0-0-0--0--0|

|---------------------------------------|
|---------------------------------------|
|---------------------------------------|
|-0--------0-0--0--0--0--------0-2--5--3|
|-0--0-0-0-0-0--0--0--0--0-0-0-0-2--5--3|
|-0--0-0-0-0-0--0--0--0--0-0-0-0-2--5--3|

Guitar #1
|---------------------------------------|
|---------------------------------------|
|---------------------------------------|
|-0--------0-1--3--2--0--------0-2--5--3|
|-0--0-0-0-0-1--3--2--0--0-0-0-0-2--5--3|
|-0--0-0-0-0-1--3--2--0--0-0-0-0-2--5--3|

|---------------------------------------|
|---------------------------------------|
|---------------------------------------|
|-0--------0-1--3--2--0--------0-0--2--1|
|-0--0-0-0-0-1--3--2--0--0-0-0-0-0--2--1|
|-0--0-0-0-0-1--3--2--0--0-0-0-0-0--2--1|

|---------------------------------------|
|---------------------------------------|
|---------------------------------------|
|-0--------0-1--3--2--0--------0-2--5--3|
|-0--0-0-0-0-1--3--2--0--0-0-0-0-2--5--3|
|-0--0-0-0-0-1--3--2--0--0-0-0-0-2--5--3|

|---------------------------------------|
|---------------------------------------|
|---------------------------------------|
|-0--------0-1--3--2--0--------0-0--2--1|
|-0--0-0-0-0-1--3--2--0--0-0-0-0-0--2--1|
|-0--0-0-0-0-1--3--2--0--0-0-0-0-0--2--1|


Guitar #2
|-----------------------------------------|
|-----------------------------------------|
|-----------------------------------------|
|-0--------0-5--8--7--0---------0-7--10--8|
|-0--0-0-0-0----------0---0-0-0-0---------|
|-0--0-0-0-0----------0---0-0-0-0---------|

|----------------------------------------|
|----------------------------------------|
|----------------------------------------|
|-0--------0-5--8--7--0---------0-2--5--3|
|-0--0-0-0-0----------0---0-0-0-0--------|
|-0--0-0-0-0----------0---0-0-0-0--------|

|-----------------------------------------|
|-----------------------------------------|
|-----------------------------------------|
|-0--------0-5--8--7--0---------0-7--10--8|
|-0--0-0-0-0----------0---0-0-0-0---------|
|-0--0-0-0-0----------0---0-0-0-0---------|

|----------------------------------------|
|----------------------------------------|
|----------------------------------------|
|-0--------0-5--8--7--0---------0-2--5--3|
|-0--0-0-0-0----------0---0-0-0-0--------|
|-0--0-0-0-0----------0---0-0-0-0--------|

Repeat all of Riff 6 again

****RIFF #7****

Guitar #1 (without Distortion)
|--------------------------|
|--------------------------|
|--14-16-16-17--14-16-16-17|
|12-----------12-----------|
|--------------------------|
|--------------------------|
	   Repeat three times

|--------------------------|
|--------------------16----|
|--14-17-17-16—14-16--17---|
|12-----------12-----------|
|--------------------------|
|--------------------------|


Guitar #2
|---------------------------------|
|---------------------------------|
|---------------------------------|
|-9-------9-------5-------7-------|
|-9-------9-------5-------7-------|
|-9-------9-------5-------7-------|
		     Repeat Three Times

****Solo****

Guitar #1
|----------------------------------------|
|----------------17----------------------|
|----------16-15----16--15-18-15-16-14-13|
|-16----16-------------------------------|
|----16----------------------------------|
|(16)------------------------------------|


|---------------/21-19-19-18-18-------|
|---/20-------------------------10-15\|
|-12----18-20-------------------------|
|-------------------------------------|
|-------------------------------------|
|-------------------------------------|


|--------------------------------------|
|---------------------16-15------------|
|----------15-13-11-13-----17-14-------|
|--13-11-14---------------------14-13--|
|-9----------------------------------11|
|--------------------------------------|
			     Repeat once

|---------------------19-17-17-16-16-----|
|-----------------------------------17-12|
|----------------------------------------|
|----------------------------------------|
|-----------11--12-11--------------------|
|-10-9-12-10--12-------------------------|

|-7-0-0-0-0-0-5-0-7-0-0-0-0-0-5-0|
|--------------------------------|
|--------------------------------|
|--------------------------------|
|--------------------------------|
|--------------------------------|

|-7-0-0-0-0-0-5-0-7-0-0-0-0-0-5-0|
|--------------------------------|
|--------------------------------|
|--------------------------------|
|--------------------------------|
|--------------------------------|

|-19-0-0-0-0-0-17-0-19-0-0-0-0-0-17-0|
|------------------------------------|
|------------------------------------|
|------------------------------------|
|------------------------------------|
|------------------------------------|

|-19-0-0-0-0-0-17-0-19-0-0-0-0-0-17-0|
|------------------------------------|
|------------------------------------|
|------------------------------------|
|------------------------------------|
|------------------------------------|

|-7-0-0-0-0-0-5-0-7-0-0-0-0-0-5-0|
|--------------------------------|
|--------------------------------|
|--------------------------------|
|--------------------------------|
|--------------------------------|

|-7-0-0-0-0-0-5-0-7-0-0-0-0-0-5-0|
|--------------------------------|
|--------------------------------|
|--------------------------------|
|--------------------------------|
|--------------------------------|


|-19-0-0-0-0-0-17-0-19-0-0-0-0-0-17-0|
|------------------------------------|
|------------------------------------|
|------------------------------------|
|------------------------------------|
|------------------------------------|

|-19-0-0-0-0-0-17-0-19-0-0-0-0-0-17\-|
|------------------------------------|
|------------------------------------|
|------------------------------------|
|------------------------------------|
|------------------------------------|


Guitar #2

|-----------------------------|
|-----------------------------|
|-----------------------------|
|-4----4-4-4-4-4-4-4-4-4-4-4-4|
|-4----4-4-4-4-4-4-4-4-4-4-4-4|
|-4----4-4-4-4-4-4-4-4-4-4-4-4|
|
|
|
|-----------------------------|
|-----------------------------|
|-----------------------------|
|-4----4-4-4-4-4-4-4-4-4-4-4-4|
|-4----4-4-4-4-4-4-4-4-4-4-4-4|
|-4----4-4-4-4-4-4-4-4-4-4-4-4|
|
|
|
|-----------------------------|
|-----------------------------|
|-----------------------------|
|-0----0-0-0-0-0-0-0-0-0-0-0-0|
|-0----0-0-0-0-0-0-0-0-0-0-0-0|
|-0----0-0-0-0-0-0-0-0-0-0-0-0|
|
|
|
|-----------------------------|
|-----------------------------|
|-----------------------------|
|3-----3-3-3-3-3-3-3-3-3-3-3-3|
|3-----3-3-3-3-3-3-3-3-3-3-3-3|
|3-----3-3-3-3-3-3-3-3-3-3-3-3|
|
|
|
|-----------------------------|
|-----------------------------|
|-----------------------------|
|-4----4-4-4-4-4-4-4-4-4-4-4-4|
|-4----4-4-4-4-4-4-4-4-4-4-4-4|
|-4----4-4-4-4-4-4-4-4-4-4-4-4|
|
|
|
|-----------------------------|
|-----------------------------|
|-----------------------------|
|-4----4-4-4-4-4-4-4-4-4-4-4-4|
|-4----4-4-4-4-4-4-4-4-4-4-4-4|
|-4----4-4-4-4-4-4-4-4-4-4-4-4|
|
|
|
|-----------------------------|
|-----------------------------|
|-----------------------------|
|-0----0-0-0-0-0-0-0-0-0-0-0-0|
|-0----0-0-0-0-0-0-0-0-0-0-0-0|
|-0----0-0-0-0-0-0-0-0-0-0-0-0|
|
|
|
|-----------------------------|
|-----------------------------|
|-----------------------------|
|2-----2-2-2-2-2-2-2-2-2-2-2-2|
|2-----2-2-2-2-2-2-2-2-2-2-2-2|
|2-----2-2-2-2-2-2-2-2-2-2-2-2|
		   Repeat twice


****RIFF #8****(Almost the same as Riff 2)

Guitar #1 (alone)
|--------------------------------|
|--------------------------------|
|--------------------------------|
|--------------------------------|
|-0-0-3-0-5-0-3-5/7—7/8—8/-------|
|-0-0-3-0-5-0-3-5/7—7/8—8/-------|

Guitar 1 & 2 Together
|----------------------------|
|----------------------------|
|----------------------------|
|----------------------------|
|0-0-5-0-7-0-5-7/8-8/10-10/--|
|0-0-5-0-7-0-5-7/8-8/10-10/--|
|
|
|
|-------------------------|
|-------------------------|
|-------------------------|
|-------------------------|
|-0-0-3-0-5-0-3-5/7-7/8-8/|
|-0-0-3-0-5-0-3-5/7-7/8-8/|
	     Repeat 3 times

|------------------------------|
|------------------------------|
|------------------------------|
|--------5-5-7-7-5-5-----------|
|-5-5-8-8-----------8-8-7-7-8-8|
|------------------------------|
|
|
|
|--------------------------|
|--------------------------|
|--------------------4-4---|
|---3-3-2-2-3-3---3-3---3-3|
|1-1-----------3-3---------|
|--------------------------|
|
|
|
|------------------------------|
|------------------------------|
|------------------------------|
|--------5-5-7-7-5-5-----------|
|-5-5-8-8-----------8-8-7-7-8-8|
|------------------------------|
|
|
|
|--------------------------|
|--------------------------|
|--------------------4-4---|
|---3-3-2-2-3-3---3-3---0-0|
|1-1-----------3-3------0-0|
|-----------------------0-0|
                 Repeat Once


|--------|
|--------|
|--------|
|-0------|
|-0------|
|-0------|
Добавлено: 12.10.2013
Другие материалы по этой песне:
  • Аккорды и текст

Страница создана 12.10.2013
http://primanota.ru/through-the-eyes-of-the-dead/when-things-become-nothing-chords.htm
Привет, Гость.
Предлагаем пройти революционный курс по гитаре.
Подарок от PrimaNota.Ru, забирай!