PrimaNota.ru - самый крупный в мире бесплатный архив песенных текстов, аккордов, табулатур и нот


Through The Eyes Of The Dead - Two Inches From A Main Artery - текст песни, таба, видео

Регистрация Запомнить меня
Войти через:  Facebook Google Twitter Vk Yandex Mail.ru

Through The Eyes Of The Dead - Two Inches From A Main Artery - текст песни, таба, видео

Печатать
Просмотров: 78
                             Two Inches From A Main Artery
                      As recorded by Through The Eyes Of The Dead
                            (From the 2005 Album BLOODLUST)
                            Copyright (c) Prosthetic Records

                               Version 1.0 - July 2006

Transcribed by MeloDeath (Zacatecas, Mexico)

For Questions, Comments, Corrections or Tab Requests;
    please contact me at: the_jesters_dance@yahoo.com

/ - SLIDE UP TO          h - HAMMER ON
\ - SLIDE DOWN TO        p - PULL OF
~ - VIBRATO              . - PALM MUTE
" - TREMOLO PICKING     () - TIE NOTE

Tunning: Drop B (B F# B E G# C#)

   Gtr I                                                                                 
   2x
||---------|----------|---------|-----------|---------|-----------|----------|----------------||
||o--------|----------|---------|-----------|---------|-----------|----------|---------------o||
||---------|----------|---------|-----------|---------|-----------|----------|--/8--5---7-----||
||--0------|-(0)------|-/8------|-/5---4----|-0-------|-(0)-------|-/4-------|----------------||
||o-0------|-(0)------|---------|-----------|-0-------|-(0)-------|----------|--/6--3---5----o||
||--0------|-(0)------|-/8------|-/5---4----|-0-------|-(0)-------|-/4-------|----------------||
||                                                                                       
    ||
|| Gtr II                                                                                
    ||
||---------|----------|---------|-----------|---------|-----------|----------|----------------||
||o--------|----------|---------|-----------|---------|-----------|----------|---------------o||
||--2------|-(2)------|-/7------|-----------|-2-------|-(2)-------|----------|-/12--8--11-----||
||--0------|-(0)------|---------|-/8---7----|-0-------|-(0)-------|-/8-------|----------------||
||o-0------|-(0)------|-/5------|-----------|-0-------|-(0)-------|----------|-/10--6---9----o||
||--0------|-(0)------|---------|-/8---7----|-0-------|-(0)-------|-/8-------|----------------||

  Gtrs I, II
|-------------------|-----------------|
|-------------------|-----------------|
|-------------------|-----------------|
|-------------------|-----------------|
|-0000-0-0-00--0000-|-0-0-00--0000-0--|
|-0000-0-0-00--0000-|-0-0-00--0000-0--|
  .... . . ..  ....   . . ..  .... .

   Gtr I
||-----------------|------------------|----------------|-------------------|
||o----------------|------------------|----------------|-------------------|
||-----------------|------------------|----------------|-------------------|
||--1--------------|------------------|----------------|-------------------|
||o-1--000-000-000-|-000-000-000------|----000-000-000-|-000---------------|
||--1--000-000-000-|-000-000-000-5-/8-|-7~-000-000-000-|-000-7-5-5-4-4-(4)-|
||     ... ... ...   ... ... ...           ... ... ...   ...               |
|| Gtr II                                                                  |
||-----------------|------------------|----------------|-------------------|
||o----------------|------------------|----------------|-------------------|
||-----------------|------------------|----------------|-------------------|
||--1--------------|------------------|----------------|-------------------|
||o-1--000-000-000-|-000-000-000-1-/5-|-3~-000-000-000-|-000-3-1-1-0-0-(0)-|
||--1--000-000-000-|-000-000-000------|----000-000-000-|-000---------------|
       ... ... ...   ... ... ...          ... ... ...   ...

  Gtr I                                                         2x
|-----------------|-----------------|-------------|--------------||
|-----------------|-----------------|-------------|-------------o||
|-----------------|-----------------|-------------|--------------||
|-----------------|-----------------|-------------|--------------||
|-----000-000-000-|-000-000-000-0-0-|-------------|-------------o||
|-/1~-000-000-000-|-000-000-000-0-0-|-0"-8"-5"-0"-|-7"-4"-5"-7"--||
|     ... ... ...   ... ... ... . .                              ||
| Gtr II                                                         ||
|-----------------|-----------------|-------------|--------------||
|-----------------|-----------------|-------------|-------------o||
|-----------------|-----------------|-------------|--------------||
|-----------------|-----------------|-------------|--------------||
|-----000-000-000-|-000-000-000-0-0-|----5"-1"----|-3"-0"-1"-3"-o||
|-/5~-000-000-000-|-000-000-000-0-0-|-0"-------0"-|--------------||
      ... ... ...   ... ... ... . .

  Gtr I
|-----------------|------------------|-----------------|-----------------|
|-----------------|------------------|-----------------|-----------------|
|-----------------|------------------|-----------------|-----------------|
|-0---------------|-(0)--------------|-----------------|-----------------|
|-0---------------|-(0)--------------|-0-0-------------|-----------------|
|-0---------------|-(0)--------------|-0-0-------------|-----------------|
|                                      . .                               |
| Gtr II                                                                 |
|-----------------|------------------|-----------------|-----------------|
|-----------------|------------------|-----------------|-----------------|
|-----------------|------------------|-----------------|-----------------|
|-----------------|------------------|-----------------|-----------------|
|-----4p1---5p4---|--7p5---5p4---1h4-|-----4p1---5p4---|-7p5---5p4---1h4-|
|-0-0-----0-----0-|------0-----0-----|-0-0-----0-----0-|-----0-----0-----|
  . .     .     .        .     .       . .     .     .       .     .

  Gtrs I, II
|-------------|-------------|-------------|-------------|
|-------------|-------------|-------------|-------------|
|-------------|-------------|-------------|-------------|
|-0"-3"-0"-2"-|-0"-7"-0"-2"-|-0"-7"-0"-5"-|-0"-3"-0"-2"-|
|-------------|-------------|-------------|-------------|
|-------------|-------------|-------------|-------------|

   Gtr I
||------------------|------------------|-----------------|-------------------|
||o-----------------|------------------|-----------------|-------------------|
||------------------|------------------|-----------------|-------------------|
||------------------|------------------|-----------------|-------------------|
||o-----7p4---8p7---|-10p8---8p7---4h7-|-----7p4---8p7---|-10p8---8p7---4h7--|
||--0-0-----0-----0-|------0-----0-----|-0-0-----0-----0-|------0-----0------|
||  . .     .     .        .     .       . .     .     .        .     .      |
|| Gtr II                                                                    |
||------------------|------------------|-----------------|-------------------|
||o-----------------|------------------|-----------------|-------------------|
||------------------|------------------|-----------------|-------------------|
||------------------|------------------|-----------------|-------------------|
||o-----4p1---5p4---|--7p5---5p4---1h4-|-----4p1---5p4---|--7p5---5p4---1h4--|
||--0-0-----0-----0-|------0-----0-----|-0-0-----0-----0-|------0-----0------|
    . .     .     .        .     .       . .     .     .       .     .

  Gtrs I, II                                            4x
|-------------|-------------|-------------|--------------||
|-------------|-------------|-------------|-------------o||
|-------------|-------------|-------------|--------------||
|-0"-3"-0"-2"-|-0"-7"-0"-2"-|-0"-7"-0"-5"-|-0"-3"-0"-2"--||
|-------------|-------------|-------------|-------------o||
|-------------|-------------|-------------|--------------||

  Gtrs I, II
|-------------|-------------|-------------|-------------|
|-------------|-------------|-------------|-------------|
|-------------|-------------|-------------|-------------|
|-------------|-------------|-------------|-------------|
|----5"-7"----|-5"-8"-8"-8"-|----5"-7"----|-5"-8"-8"-8"-|
|-0"-------0"-|-------------|-0"-------0"-|-------------|

  Gtrs I, II
|-------------|-------------|-------------|-------------|
|-------------|-------------|-------------|-------------|
|-------------|-------------|-------------|-------------|
|-------------|-------------|-------------|-3"----2"----|
|-1"-5"-1"-5"-|--4"--0"-----|-1"-5"-1"-5"-|-------------|
|-------------|-------------|-------------|-------------|

  Gtr I
|----------------|---------------|----------------|---------------|
|----------------|---------------|----------------|---------------|
|----------------|---------------|----------------|---------------|
|----------------|---------------|----------------|---------------|
|-00000000--0000-|-0000----------|-00000000--0000-|-0000-------0--|
|-00000000--0000-|-0000----------|-00000000--0000-|-0000-------0--|
| ........  ....   ....            ........  ....   ....       .  |
| Gtr II                                                          |
|----------------|---------------|----------------|---------------|
|----------------|---------------|----------------|---------------|
|----------------|---------------|----------------|---------------|
|----------------|---------------|----------------|---------------|
|-----5"---7"----|-5"---8"-8"-8"-|-----5"---7"----|-5"---8"-8"-8"-|
|-0"---------0"--|---------------|-0"---------0"--|---------------|

  Gtr I
|-----------------|----------|-----------------|------------|
|-----------------|----------|-----------------|------------|
|-----------------|----------|-----------------|------------|
|-----------------|----------|-----------------|------------|
|-00000000---0000-|-0000-----|-00000000---0000-|-0000--0----|
|-00000000---0000-|-0000-----|-00000000---0000-|-0000--0----|
| ........   ....   ....       ........   ....   ....  .    |
| Gtr II                                                    |
|-----------------|----------|-----------------|------------|
|-----------------|----------|-----------------|------------|
|-----------------|----------|-----------------|------------|
|-----------------|----------|-----------------|------------|
|-1"--5"--1"-5"---|-4"--0"---|-1"--5"--1"-5"---|-3"----2"---|
|-----------------|----------|-----------------|------------|

  Gtr I
|---------------|-----------------|---------------------|---------------------|
|---------------|-----------------|---------------------|---------------------|
|---------------|-----------------|---------------------|---------------------|
|---------------|-----------------|---------------------|---------------------|
|-0-----0-------|-0-------0-------|-0-0-0-----0-0-0-----|-0-0-0-----0-0-0-----|
|-0-----0-------|-0-------0-------|-0-0-0-----0-0-0-----|-0-0-0-----0-0-0-----|
| .     .         .       .         . . .     . . .       . . .     . . .     |
| Gtr II                                                                      |
|---------------|-----------------|---------------------|---------------------|
|---------------|-----------------|---------------------|---------------------|
|---------------|-----------------|---------------------|---------------------|
|---------------|-----------------|---------------------|---------------------|
|---4p1---5p4---|-7p5---5p4---1h4-|-------4p1-----5p4---|-7p==5---5p4-----1h4-|
|-0-----0-----0-|-----0-----0-----|-0-0-0-----0-------0-|-------0-------0-----|
  .     .     .       .     .       . . .     .       .         .       .

  Gtrs I, II
|-------------|-------------|-------------|-------------|
|-------------|-------------|-------------|-------------|
|-------------|-------------|-------------|-------------|
|-0"-3"-0"-2"-|-0"-7"-0"-2"-|-0"-7"-0"-5"-|-0"-3"-0"-2"-|
|-------------|-------------|-------------|-------------|
|-------------|-------------|-------------|-------------|

   Gtr I
||------------------|------------------|-----------------|-------------------|
||o-----------------|------------------|-----------------|-------------------|
||------------------|------------------|-----------------|-------------------|
||------------------|------------------|-----------------|-------------------|
||o-----7p4---8p7---|-10p8---8p7---4h7-|-----7p4---8p7---|-10p8---8p7---4h7--|
||--0-0-----0-----0-|------0-----0-----|-0-0-----0-----0-|------0-----0------|
||  . .     .     .        .     .       . .     .     .        .     .      |
|| Gtr II                                                                    |
||------------------|------------------|-----------------|-------------------|
||o-----------------|------------------|-----------------|-------------------|
||------------------|------------------|-----------------|-------------------|
||------------------|------------------|-----------------|-------------------|
||o-----4p1---5p4---|--7p5---5p4---1h4-|-----4p1---5p4---|--7p5---5p4---1h4--|
||--0-0-----0-----0-|------0-----0-----|-0-0-----0-----0-|------0-----0------|
    . .     .     .        .     .       . .     .     .       .     .

  Gtrs I, II                                            2x
|-------------|-------------|-------------|--------------||
|-------------|-------------|-------------|-------------o||
|-------------|-------------|-------------|--------------||
|-0"-3"-0"-2"-|-0"-7"-0"-2"-|-0"-7"-0"-5"-|-0"-3"-0"-2"--||
|-------------|-------------|-------------|-------------o||
|-------------|-------------|-------------|--------------||

   Gtr I
||----------------|--------------|---------------|-----------------|
||o---------------|--------------|---------------|-----------------|
||----------------|--------------|---------------|-----------------|
||----------------|--------------|---------------|-----------------|
||o-0-0--0-0-0-0--|--0--0-0-0-0--|-0-0--0-0-0-0--|--0-0-1-0-/5-4---|
||--0-0--0-0-0-0--|--0--0-0-0-0--|-0-0--0-0-0-0--|--0-0------------|
||  . .  . . . .     .  . . . .    . .  . . . .     . .            |
|| Gtr II                                                          |
||----------------|--------------|---------------|-----------------|
||o---------------|--------------|---------------|-----------------|
||----------------|--------------|---------------|-----------------|
||----------------|--------------|---------------|-----------------|
||o-0-0--0-0-0-0--|--0--0-0-0-0--|-0-0--0-0-0-0--|--0-0------------|
||--0-0--0-0-0-0--|--0--0-0-0-0--|-0-0--0-0-0-0--|--0-0-5-4-/8-7---|
    . .  . . . .     .  . . . .    . .  . . . .     . .

  Gtr I                                                          2x
|---------------|--------------|---------------|------------------||
|---------------|--------------|---------------|-----------------o||
|---------------|--------------|---------------|------------------||
|---------------|--------------|---------------|------------------||
|-0-0--0-0-0-0--|--0--0-0-0-0--|-0-0--0-0-0-0--|--5-4-/7-5-/8-7--o||
|-0-0--0-0-0-0--|--0--0-0-0-0--|-0-0--0-0-0-0--|------------------||
| . .  . . . .     .  . . . .    . .  . . . .                     ||
| Gtr II                                                          ||
|---------------|--------------|---------------|------------------||
|---------------|--------------|---------------|-----------------o||
|---------------|--------------|---------------|------------------||
|---------------|--------------|---------------|------------------||
|-0-0--0-0-0-0--|--0--0-0-0-0--|-0-0--0-0-0-0--|--1-0-/4-1-/5-4--o||
|-0-0--0-0-0-0--|--0--0-0-0-0--|-0-0--0-0-0-0--|------------------||
  . .  . . . .     .  . . . .    . .  . . . .

  Gtrs I, II
|----------------------|----------------------|----------------------|-----------------------|
|----------------------|----------------------|----------------------|-----------------------|
|----------------------|----------------------|----------------------|-----------------------|
|----------------------|----------------------|----------------------|-----------------------|
|---8"-5"-8"--8"-5"-8"-|---7"-4"-7"--5"-1"-4"-|---8"-5"-8"--8"-5"-8"-|---10"-7"-8"--7"-8"-7"-|
|-0"--------0"---------|-2"--------2"---------|-0"--------0"---------|-7"---------7"---------|


  Gtr I
|----------------------|----------------------|----------------------|-----------------------|
|----------------------|----------------------|----------------------|-----------------------|
|----------------------|----------------------|----------------------|-----------------------|
|----------------------|----------------------|----------------------|-----------------------|
|---8"-5"-8"--8"-5"-8"-|---7"-4"-7"--5"-1"-4"-|---8"-5"-8"--8"-5"-8"-|---10"-7"-8"-0-0--0-0--|
|-0"--------0"---------|-2"--------2"---------|-0"--------0"---------|-7"----------0-0--0-0--|
|                                                                                  . .  
.  |
| Gtr II                                                                                 
   |
|----------------------|----------------------|----------------------|-----------------------|
|----------------------|----------------------|----------------------|-----------------------|
|----------------------|----------------------|----------------------|-----------------------|
|-0--------------------|-2--------------------|-3--------------------|-7---------------------|
|-0--------------------|-2--------------------|-3--------------------|-7-----------0-0--0-0--|
|-0--------------------|-2--------------------|-3--------------------|-7-----------0-0--0-0--|
                                                                                   . .  ..

  Gtr I                                                   3x
||--------------------------|------------------------------||
||o-------------------------|-----------------------------o||
||--------------------------|------------------------------||
||--------------------------|------------------------------||
||o-0-0-0-0-0-0-0-0-0-0-0-0-|-0-0-0-0-0-0-00-0-0-00-0-0---o||
||--0-0-0-0-0-0-0-0-0-0-0-0-|-0-0-0-0-0-0-00-0-0-00-0-0----||
||  . . . . . . . . . . . .   . . . . . . .. . . .. . .    ||
|| Gtr II                                                  ||
||--------------------------|------------------------------||
||o-------------------------|-----------------------------o||
||--------------------------|------------------------------||
||--------------------------|------------------------------||
||o-0-0-0-------------0-0-0-|-0-0-0-----------------------o||
||--0-0-0-------------0-0-0-|-0-0-0------------------------||
    . . .             . . .   . . .

  Gtr I
|-------------------------|-----------------------------|
|-------------------------|-----------------------------|
|-------------------------|-----------------------------|
|-------------------------|-----------------------------|
|-0-0-0-0-0-0-0-0-0-0-0-0-|-0-0-0-0-0-0-0-0-0-0---------|
|-0-0-0-0-0-0-0-0-0-0-0-0-|-0-0-0-0-0-0-0-0-0-0---------|
| . . . . . . . . . . . .   . . . . . . . . . .         |
| Gtr II                                                |
|-------------------------|-----------------------------|
|-------------------------|-----------------------------|
|-------------------------|-----------------------------|
|-------------------------|-----------------------------|
|-0-0-0-------------0-0-0-|-0-0-0-------------0---------|
|-0-0-0-------------0-0-0-|-0-0-0-------------0---------|
  . . .             . . .   . . .             .

   Gtr I
||-----------------------------|--------------------------|
||o----------------------------|--------------------------|
||-----------------------------|--------------------------|
||---------5-7-8--5-7-8--------|---------5-7-8-10--8-7----|
||o-0-0-0---------------0-00-0-|-00-0------------------9--|
||--0-0-0---------------0-00-0-|-00-0---------------------|
||  . . .               . .. .   .. .                     |
|| Gtr II                                                 |
||-----------------------------|--------------------------|
||o----------------------------|--------------------------|
||-----------------------------|--------------------------|
||-----------------------------|--------------------------|
||o-0-0-0-10-9-6-10-9-6-0-00-0-|-00-0---10-9-6-12-10-9-5--|
||--0-0-0---------------0-00-0-|-00-0---------------------|
    . . .               . .. .   .. .

   Gtr I                                             4x
|-----------------------------|------------------------||
|-----------------------------|-----------------------o||
|-----------------------------|------------------------||
|---------5-7-8--5-7-8--------|--------5-7-5-5-4---4---||
|-00-0-0---------------0-00-0-|-00-0-------------7----o||
|-00-0-0---------------0-00-0-|-00-0-------------------||
| .. . .               . .. .   .. .                   ||
| Gtr II                                               ||
|-----------------------------|------------------------||
|-----------------------------|-----------------------o||
|-----------------------------|------------------------||
|-----------------------------|--------------8-7-5-7---||
|-00-0-0-10-9-6-10-9-6-0-00-0-|-00-0--10-9-6----------o||
|-00-0-0---------------0-00-0-|-00-0-------------------||
  .. . .               . .. .   .. .

   Gtr I
|--------------------------|-----------------------------------|
|--------------------------|-----------------------------------|
|--------------------------|---------9/10-10-10/12-12-12/14-14-|
|--------------------------|-----------------------------------|
|-0-00-0-------------------|-0-00-0---7/8--8--8/10-10-10/12-12-|
|-0-00-0-------------------|-0-00-0----------------------------|
| . .. .                     . .. .                            |
| Gtr II                                                       |
|--------------------------|-----------------------------------|
|--------------------------|-----------------------------------|
|--------9\7-7-7\6-6-6\3-3-|-----------------------------------|
|--------------------------|-----------------------------------|
|-0-00-0-7\5-5-5\4-4-4\1-1-|-0-00-0----------------------------|
|-0-00-0-------------------|-0-00-0----------------------------|
  . .. .                     . .. .

  Gtr I
|---------------------------|-------------|
|---------------------------|-------------|
|---------------------------|-------------|
|---------------------------|-------------|
|-0-00-0--------------------|-7"-4"-5"-7"-|
|-0-00-0--------------------|-------------|
| . .. .
| Gtr II
|---------------------------|-------------|
|---------------------------|-------------|
|---------9\7-7-7\6-6-6\3-3-|-------------|
|---------------------------|-5"-2"-3"-5"-|
|-0-00-0--7\5-5-5\4-4-4\1-1-|-------------|
|-0-00-0--------------------|-------------|
  . .. .

   Gtr I
||-----------------------------|-----------------------------------|
||o----------------------------|-----------------------------------|
||---------6/7-7-7/9-9-9/10-10-|---------9/10-10-10/12-12-12/14-14-|
||-----------------------------|-----------------------------------|
||o-0-00-0-4/5-5-5/7-7--7/8--8-|-0-00-0---7/8--8--8/10-10-10/12-12-|
||--0-00-0---------------------|-0-00-0----------------------------|
||  . .. .                       . .. .                            |
|| Gtr II                                                          |
||-----------------------------|-----------------------------------|
||o----------------------------|-----------------------------------|
||---------6/7-7-7\6-6--6\3--3-|--------12\10-10--10\9--9---9\7--7-|
||-----------------------------|-----------------------------------|
||o-0-00-0-4/5-5-5\4-4--4\1--1-|-0-00-0--10\8--8---8\7--7---7\5--5-|
||--0-00-0---------------------|-0-00-0----------------------------|
    . .. .                       . .. .

  Gtr I                                     2x
|-----------------------------|--------------||
|-----------------------------|-------------o||
|---------6/7-7-7/9-9-9/10-10-|--------------||
|-----------------------------|--------------||
|--0-00-0-4/5-5-5/7-7--7/8--8-|-7"-4"-5"-7"-o||
|--0-00-0---------------------|--------------||
|  . .. .                                    ||
| Gtr II                                     ||
|-----------------------------|--------------||
|-----------------------------|-------------o||
|---------6/7-7-7\6-6--6\3--3-|--------------||
|-----------------------------|-5"-2"-3"-5"--||
|--0-00-0-4/5-5-5\4-4--4\1--1-|-------------o||
|--0-00-0---------------------|--------------||
   . .. .

   Gtrs I, II                                                                      2x
||--------------|---------------------|-------------|-------------------------------||
||o-------------|---------------------|-------------|------------------------------o||
||--------------|---------------------|-------------|-------------------------------||
||--------------|---------------------|-------------|-------------------------------||
||o-8"----7"----|-10"----8"-7"-8"-10"-|-8"----7"----|-1"-0"-1"-4"--1"-4"-5"-4"-1"--o||
||-----0"----0"-|-----8"--------------|----0"----0"-|-------------------------------||


   Gtr I
||----------------------------|-----------------------|
||o---------------------------|-----------------------|
||----------------------------|-----------------------|
||----------------------------|-----------------------|
||o--------8-----7------------|-10-----8-----8"-5-7-8-|
||--0-00-0---0-0---0-0-00-0-0-|----0-0---0-0----------|
||  . .. .   . .   . . .. . .      . .   . .          |
|| Gtr II                                             |
||----------------------------|-----------------------|
||o---------------------------|-----------------------|
||----------------------------|-----------------------|
||----------------------------|-----------------------|
||o--------5-----4------------|--7-----5-----5"-1-4-5-|
||--0-00-0---0-0---0-0-00-0-0-|----0-0---0-0----------|
    . .. .   . .   . . .. . .      . .   . .

   Gtr I
|---------------------------|----------------------||
|---------------------------|---------------------o||
|---------------------------|----------------------||
|---------------------------|----------------------||
|--------8-----7------------|-8"-5-7-8-7"-4-5-7---o||
|-0-00-0---0-0---0-0-00-0-0-|----------------------||
| . .. .   . .   . . .. . .                        ||
|  Gtr II                                          ||
|---------------------------|----------------------||
|---------------------------|---------------------o||
|---------------------------|----------------------||
|---------------------------|----------------------||
|--------5-----4------------|-5"-1-4-5-4"-0-1-4---o||
|-0-00-0---0-0---0-0-00-0-0-|----------------------||
  . .. .   . .   . . .. . .

   Gtrs I, II                                                                      2x
||--------------|---------------------|-------------|-------------------------------||
||o-------------|---------------------|-------------|------------------------------o||
||--------------|---------------------|-------------|-------------------------------||
||--------------|---------------------|-------------|-------------------------------||
||o-8"----7"----|-10"----8"-7"-8"-10"-|-8"----7"----|-1"-0"-1"-4"--1"-4"-5"-4"-1"--o||
||-----0"----0"-|-----8"--------------|----0"----0"-|-------------------------------||


  Gtrs I
|-------------------|-----------------|
|-------------------|-----------------|
|-------------------|-----------------|
|-------------------|-----------------|
|-0000-0-0-00-------|---------0000-0--|
|-0000-0-0-00-------|---------0000-0--|
| .... . . ..                 .... .  |
| Gtr II                              |
|-------------------|-----------------|
|-------------------|-----------------|
|-------------------|-----------------|
|-------------------|-----------------|
|--------------0000-|-0-0-00--0000-0--|
|--------------0000-|-0-0-00--0000-0--|
|              ....   . . ..  .... .  |

  Gtrs I, II
||--------------------|-----------------|
||o-------------------|-----------------|
||--------------------|-----------------|
||--------------------|-----------------|
||o-0000-0-0-00--0000-|-0-0-00--0000-0--|
||--0000-0-0-00--0000-|-0-0-00--0000-0--|
    .... . . ..  ....   . . ..  .... .

  Gtrs I, II                          4x
|-------------------|-----------------||
|-------------------|----------------o||
|-------------------|-----------------||
|-------------------|-----------------||
|-0000-0-0-00--0000-|-0-0-00--00-00--o||
|-0000-0-0-00--0000-|-0-0-00--00-00---||
  .... . . ..  ....   . . ..  .. ..
Добавлено: 30.10.2013
Другие материалы по этой песне:
  • Аккорды и текст

Страница создана 24.02.2012
http://primanota.ru/through-the-eyes-of-the-dead/two-inches-from-a-main-artery-chords.htm
Привет, Гость.
Предлагаем пройти революционный курс по гитаре.
Подарок от PrimaNota.Ru, забирай!