PrimaNota.ru - самый крупный в мире бесплатный архив песенных текстов, аккордов, табулатур и нот


Through The Eyes Of The Dead - Truest Shade Of Crimson - текст песни, таба, бас-таба, видео

Регистрация Запомнить меня
Войти через:  Facebook Google Twitter Vk Yandex Mail.ru

Through The Eyes Of The Dead - Truest Shade Of Crimson - текст песни, таба, бас-таба, видео

Печатать
Просмотров: 59
BAND - Through the Eyes of the Dead
SONG - Truest Shade of Crimson
ALBUM - Bloodlust
TABBED BY - Bryan H. & Ty B.


All guitars are tuned: B F# B E G# C#
  Q=130
 7/4             4/4
  Gtrs I, II
|---------------|---------------------------------|
|---------------|---------------------------------|
|---------------|---------------------------------|
|---------------|---------------------------------|
|---------------|-----0-0-7-7-0-0-8-8-0-0-7-7-0-0-|
|---------------|-0-0-----------------------------|


|---------------------------------|---------------------------------|
|---------------------------------|---------------------------------|
|---------------------------------|---------------------------------|
|---------------------------------|---------------------------------|
|-----0-0-7-7-0-0-4-4-0-0-5-5-0-0-|-----0-0-7-7-0-0-8-8-0-0-7-7-0-0-|
|-0-0-----------------------------|-0-0-----------------------------|


  Gtr I
|---------------------------------|---------------------------------|
|---------------------------------|---------------------------------|
|---------------------------------|---------------------------------|
|-5-5-3-3-2-2-0-0-3-3-2-2-0-0-----|---------------------------------|
|-----------------------------4-4-|-----0-0-4-4-----5-5-----4-4-----|
|---------------------------------|-0-0---------0-0-----0-0-----0-0-|
|
| Gtr II
|---------------------------------|---------------------------------|
|---------------------------------|---------------------------------|
|---------------------------------|---------------------------------|
|-----------------0-0-------------|---------------------------------|
|-7-7-5-5-4-4-1-1-----4-4-1-1-0-0-|-----0-0-4-4-----5-5-----4-4-----|
|---------------------------------|-0-0---------0-0-----0-0-----0-0-|


  Gtrs I, II
|---------------------------------|---------------------------------|
|---------------------------------|---------------------------------|
|---------------------------------|---------------------------------|
|---------------------------------|---------------------------------|
|-----0-0-4-4---------------------|-----0-0-4-4-----5-5-----4-4-----|
|-0-0---------0-0-7-7-0-0-8-8-0-0-|-0-0---------0-0-----0-0-----0-0-|


|---------------------------------|---------------------------------|
|---------------------------------|---------------------------------|
|---------------------------------|---------------------------------|
|---------------------------------|---------------------------------|
|-0-0-------------1-1-0-0---------|-----0-0-7-7-0-0-8-8-0-0-7-7-0-0-|
|-----3-3-2-2-0-0---------5-5-3-3-|-0-0-----------------------------|


|---------------------------------|---------------------------------|
|---------------------------------|---------------------------------|
|---------------------------------|---------------------------------|
|---------------------------------|---------------------------------|
|-----0-0-7-7-0-0-4-4-0-0-5-5-0-0-|-----0-0-7-7-0-0-8-8-0-0-7-7-0-0-|
|-0-0-----------------------------|-0-0-----------------------------|


  Gtr I
|---------------------------------|---------------------------------|
|---------------------------------|---------------------------------|
|---------------------------------|---------------------------------|
|-5-5-3-3-2-2-0-0-3-3-2-2-0-0-----|---------------------------------|
|-----------------------------4-4-|-----0-0-4-4-----5-5-----4-4-----|
|---------------------------------|-0-0---------0-0-----0-0-----0-0-|
|
| Gtr II
|---------------------------------|---------------------------------|
|---------------------------------|---------------------------------|
|---------------------------------|---------------------------------|
|---------------------------------|---------------------------------|
|-7-7-5-5-4-4-1-1-5-5-4-4-1-1-0-0-|-----0-0-4-4-----5-5-----4-4-----|
|---------------------------------|-0-0---------0-0-----0-0-----0-0-|


  Gtrs I, II
|---------------------------------|---------------------------------|
|---------------------------------|---------------------------------|
|---------------------------------|---------------------------------|
|---------------------------------|---------------------------------|
|-----0-0-4-4---------------------|-----0-0-4-4-----5-5-----4-4-----|
|-0-0---------0-0-7-7-0-0-8-8-0-0-|-0-0---------0-0-----0-0-----0-0-|


  Gtr I
|------------|-------------------------------------|
|------------|-------------------------------------|
|------------|-------------------------------------|
|------------|-------------------------------------|
|------------|-------------------------------------|
|-7----5--4--|-0-0-12-0-12-0-8-11-0-0-7-0-8-0-8-11-|
|
| Gtr II
|------------|-------------------------------------|
|------------|-------------------------------------|
|------------|-------------------------------------|
|------------|-------------------------------------|
|-5----------|-0------------------0---------0-0--0-|
|------8--7--|-0------------------0---------0-0--0-|


|-------------------------------------|
|-------------------------------------|
|-------------------------------------|
|-------------------------------------|
|-------------------------------------|
|-0-0-12-0-12-0-8-0-11-0-7-0-8-0-8-11-|
|
|-------------------------------------|
|-------------------------------------|
|-------------------------------------|
|-------------------------------------|
|-0-------------0-0--0-0-----0---0--0-|
|-0-------------0-0--0-0-----0---0--0-|


|---------------------------------------------|
|---------------------------------------------|
|---------------------------------------------|
|---------------------------------------------|
|---------------------------------------------|
|-0-0-12-12-14-14-15-15-14-14-11-11-12-12-7-7-|
|
|---------------------------------------------|
|---------------------------------------------|
|---------------------------------------------|
|---------------------------------------------|
|-8-------------------------------------------|
|-8-------------------------------------------|


|------------------------------------|-------------------------------------|
|------------------------------------|-------------------------------------|
|------------------------------------|-------------------------------------|
|--------------8-8-7-7---------------|-------------------------------------|
|------7-7-8-8---------7-7-8-8-10-10-|-------------------------------------|
|--8-8-------------------------------|-0-0-12-0-12-0-8-0-11-0-7-0-8-0-8-11-|
|
|------------------------------------|-------------------------------------|
|------------------------------------|-------------------------------------|
|------------------------------------|-------------------------------------|
|------------------------------------|-------------------------------------|
|-12---------------------------------|-------------------------------------|
|-12---------------------------------|-0-0-12-0-12-0-8-0-11-0-7-0-8-0-8-11-|


  Gtrs I, II
|-------------------------------------|---------------------------------|
|-------------------------------------|---------------------------------|
|-------------------------------------|---------------------------------|
|-------------------------------------|---------------------------------|
|-------------------------------------|-----5-5-7-7-8-8-7-7-4-4-5-5-----|
|-0-0-12-0-12-0-8-0-11-0-7-0-8-0-8-11-|-0-0-------------------------7-7-|


|-----------------------------------|-------------------------------------|
|-----------------------------------|-------------------------------------|
|-----------------------------------|-------------------------------------|
|-------------8-8-7-7---------------|-------------------------------------|
|-----7-7-8-8---------7-7-8-8-10-10-|-------------------------------------|
|-8-8-------------------------------|-0-0-12-0-12-0-8-0-11-0-7-0-8-0-8-11-|


|-------------------------------------|---------------------------------|
|-------------------------------------|---------------------------------|
|-------------------------------------|---------------------------------|
|-------------------------------------|---------------------------------|
|-------------------------------------|-----5-5-7-7-8-8-7-7-4-4-5-5-----|
|-0-0-12-0-12-0-8-0-11-0-7-0-8-0-8-11-|-0-0-------------------------7-7-|


|-----------------------------------|---------------------------------|
|-----------------------------------|---------------------------------|
|-----------------------------------|---------------------------------|
|-------------8-8-7-7---------------|---------------------------------|
|-----7-7-8-8---------7-7-8-8-10-10-|-5-5-5-5-----4-4-4-4-------------|
|-8-8-------------------------------|---------0-0---------0-0-0-0-0-0-|


  Gtr I
|-------------------------------------|---------------------------------|
|-------------------------------------|---------------------------------|
|-------------------------------------|---------------------------------|
|-------------------------------------|---------------------------------|
|-8-8-8-8-----7-7-7-7-8-8-10-10-12-12-|-5-5-5-5-----4-4-4-4-----1-1-1-1-|
|---------8-8-------------------------|---------0-0---------0-0---------|
|
| Gtr II
|-------------------------------------|---------------------------------|
|-------------------------------------|---------------------------------|
|-------------------------------------|---------------------------------|
|-------------------------------------|---------------------------------|
|-8-8-8-8-----7-7-7-7-4-4--5--5--7--7-|-5-5-5-5-----4-4-4-4-----1-1-1-1-|
|---------8-8-------------------------|---------0-0---------0-0---------|


|-----------------------|---------------------------------|
|-----------------------|---------------------------------|
|-----------------------|---------------------------------|
|-----------------------|---------------------------------|
|-----------------3--2--|-5-5-5-5-----4-4-4-4-------------|
|-0-0-7-7-7-7-0-0-3--2--|---------0-0---------0-0-0-0-0-0-|
|
|-----------------------|---------------------------------|
|-----------------------|---------------------------------|
|-----------------------|---------------------------------|
|-----------------------|---------------------------------|
|-----------------3--2--|-5-5-5-5-----4-4-4-4-------------|
|-0-0-7-7-7-7-0-0-3--2--|---------0-0---------0-0-0-0-0-0-|


|-------------------------------------|-----------------------------------|
|-------------------------------------|-----------------------------------|
|-------------------------------------|-----------------------------------|
|-------------------------------------|-----------------------------------|
|-8-8-8-8-----7-7-7-7-8-8-10-10-12-12-|-5-5-5-5-----4-4-4-4-----1-1-1-1---|
|---------8-8-------------------------|---------0-0---------0-0-----------|
|
|-------------------------------------|-----------------------------------|
|-------------------------------------|-----------------------------------|
|-------------------------------------|-----------------------------------|
|-------------------------------------|-----------------------------------|
|-8-8-8-8-----7-7-7-7-4-4--5--5--7--7-|-5-5-5-5-----4-4-4-4-----1-1-1-1---|
|---------8-8-------------------------|---------0-0---------0-0-----------|


|-------------------------|-------------------------------------|
|-------------------------|-------------------------------------|
|-------------------------|-------------------------------------|
|-------------------------|-------------------------------------|
|-----------------3--2-2--|-------------------------------------|
|-0-0-7-7-7-7-0-0-3--2-2--|-0-0-12-0-12-0-8-0-11-0-7-0-8-0-8-11-|
|
|-------------------------|-------------------------------------|
|-------------------------|-------------------------------------|
|-------------------------|-------------------------------------|
|-------------------------|-------------------------------------|
|-----------------3--2-2--|-0-0--0-0--0-0-0-0--0-------0-0-0----|
|-0-0-7-7-7-7-0-0-3--2-2--|-0-0--0-0--0-0-0-0--0-------0-0-0----|


|-------------------------------------|---------------------------------|
|-------------------------------------|---------------------------------|
|-------------------------------------|---------------------------------|
|-------------------------------------|---------------------------------|
|-------------------------------------|-----5-5-7-7-8-8-7-7-4-4-5-5-----|
|-0-0-12-0-12-0-8-0-11-0-7-0-8-0-8-11-|-0-0-------------------------7-7-|
|
|-------------------------------------|---------------------------------|
|-------------------------------------|---------------------------------|
|-------------------------------------|---------------------------------|
|-------------------------------------|---------------------------------|
|-0-0--0-0--0-0-0-0--0-------0-0-0----|-----5-5-7-7-8-8-7-7-4-4-5-5-----|
|-0-0--0-0--0-0-0-0--0-------0-0-0----|-0-0-------------------------7-7-|


|-----------------------------------|-------------------------------------|
|-----------------------------------|-------------------------------------|
|-----------------------------------|-------------------------------------|
|-------------8-8-7-7---------------|-------------------------------------|
|-----7-7-8-8---------7-7-8-8-10-10-|-------------------------------------|
|-8-8-------------------------------|-0-0-12-0-12-0-8-0-11-0-7-0-8-0-8-11-|
|
|-----------------------------------|-------------------------------------|
|-----------------------------------|-------------------------------------|
|-----------------------------------|-------------------------------------|
|-------------8-8-7-7---------------|-------------------------------------|
|-----7-7-8-8---------7-7-8-8-10-10-|-0-0--0-0--0-0-0-0--0-------0-0-0----|
|-8-8-------------------------------|-0-0--0-0--0-0-0-0--0-------0-0-0----|


|-------------------------------------|
|-------------------------------------|
|-------------------------------------|
|-------------------------------------|
|-------------------------------------|
|-0-0-12-0-12-0-8-0-11-0-7-0-8-0-8-11-|
|
|-------------------------------------|
|-------------------------------------|
|-------------------------------------|
|-------------------------------------|
|-0-0--0-0--0-0-0-0--0-------0-0-0----|
|-0-0--0-0--0-0-0-0--0-------0-0-0----|


|---------------------------------------------|
|---------------------------------------------|
|---------------------------------------------|
|---------------------------------------------|
|-----------------------------------------0-0-|
|-0-0-12-12-14-14-15-15-14-14-11-11-12-12-----|
|
|---------------------------------------------|
|---------------------------------------------|
|---------------------------------------------|
|---------------------------------------------|
|-----------------------------------------0-0-|
|-0-0-12-12-14-14-15-15-14-14-11-11-12-12-----|


|-----------------------------------|
|-----------------------------------|
|-----------------------------------|
|-------------8-8-7-7---------------|
|-----7-7-8-8---------7-7-8-8-10-10-|
|-8-8-------------------------------|
|
|-----------------------------------|
|-----------------------------------|
|-----------------------------------|
|-------------8-8-7-7---------------|
|-----7-7-8-8---------7-7-8-8-10-10-|
|-8-8-------------------------------|


|-----------------------------|-----------------------------|
|-----------------------------|-----------------------------|
|-----------------------------|-----------------------------|
|-----------------------------|-----------------------------|
|-0-0-0--------0-0-0----------|-0-0-0--------0-0-0----------|
|-0-0-0--------0-0-0----------|-0-0-0--------0-0-0----------|
|
|-----------------------------|-----------------------------|
|-----------------------------|-----------------------------|
|-----------------------------|-----------------------------|
|-----------------------------|-----------------------------|
|--------0-0-0--------0-0-0---|--------0-0-0--------0-0-0---|
|--------0-0-0--------0-0-0---|--------0-0-0--------0-0-0---|


|----------------------------------------|-------------------------------------------|
|----------------------------------------|-------------------------------------------|
|----------------------------------------|-------------------------------------------|
|----------------------------------------|-------------------------------------------|
|-0-0-0-----------0-0-0------------------|---0--0-0-----------0-0-0------------------|
|-0-0-0-----------0-0-0------------------|---0--0-0-----------0-0-0------------------|
|
|----------------------------------------|-------------------------------------------|
|----------------------------------------|-------------------------------------------|
|----------------------------------------|-------------------------------------------|
|----------------------------------------|-------------------------------------------|
|----------0-0-0-----------0-0-0---------|--------------0-0-0-----------0-0----0-----|
|----------0-0-0-----------0-0-0---------|--------------0-0-0-----------0-0----0-----|
|
| Gtr III
|-5-----7--9-----10------9--------(9)-13-|-(13)-----12-12-----------12-10---12-------|
|-7-----8-10-----11-----10-------(10)-15-|-(15)-----14-14-----------14-12---14---14--|
|----------------------------------------|---------------------------------------14--|
|----------------------------------------|-------------------------------------------|
|----------------------------------------|-------------------------------------------|
|----------------------------------------|-------------------------------------------|


|------------------------------------------------|
|------------------------------------------------|
|------------------------------------------------|
|------------------------------------------------|
|--0-0----0-----------0-0----0-------------------|
|--0-0----0-----------0-0----0-------------------|
|
|------------------------------------------------|
|------------------------------------------------|
|------------------------------------------------|
|------------------------------------------------|
|--------------0-0-0--------------0-0-0----------|
|--------------0-0-0--------------0-0-0----------|
|
|------------------------------------------------|
|-16---17---15-------14---15---14----------------|
|-17---18---16-------15---16---15-------14-14-14-|
|---------------------------------------16-16-16-|
|------------------------------------------------|
|------------------------------------------------|


|--------------------------------|
|--------------------------------|
|--------------------------------|
|--------------------------------|
|-0-0--------------0-0-----------|
|-0-0--------------0-0-----------|
|
|--------------------------------|
|--------------------------------|
|--------------------------------|
|--------------------------------|
|------------0-0---------0--0----|
|------------0-0---------0--0----|
|
|--------------------------------|
|-----14-14-14----14----14-16-14-|
|-----15-15-15----14----16-17-16-|
|--------------------------------|
|--------------------------------|
|--------------------------------|


|-------------------------------------------------|
|-------------------------------------------------|
|-------------------------------------------------|
|-------------------------------------------------|
|--0-----------------------0----------------------|
|--0-----------------------0----------------------|
|
|-------------------------------------------------|
|-------------------------------------------------|
|-------------------------------------------------|
|-------------------------------------------------|
|--------------0-----------------------0----------|
|--------------0-----------------------0----------|
|
|-------10-------10-------10-------10-------10----|
|-10-10----10-10----10-10----10-10----10-10----10-|
|-------------------------------------------------|
|-------------------------------------------------|
|-------------------------------------------------|
|-------------------------------------------------|


|-------------------------------------------------------------|
|-------------------------------------------------------------|
|-------------------------------------------------------------|
|-------------------------------------------------------------|
|--0-0----0----------------0-0----0---------------------------|
|--0-0----0----------------0-0----0---------------------------|
|
|-------------------------------------------------------------|
|-------------------------------------------------------------|
|-------------------------------------------------------------|
|-------------------------------------------------------------|
|-----------------0-0---0-----------------0-0---0-------------|
|-----------------0-0---0-----------------0-0---0-------------|
|
|-----------9---------9-------------9---------9---10-12-10----|
|-11---11-----11-11-------11---11-----11-11----------------11-|
|-------------------------------------------------------------|
|-------------------------------------------------------------|
|-------------------------------------------------------------|
|-------------------------------------------------------------|


|------------------------------------------------------------------|
|------------------------------------------------------------------|
|------------------------------------------------------------------|
|------------------------------------------------------------------|
|--0-0----0------------------0-0----0------------------------------|
|--0-0----0------------------0-0----0------------------------------|
|
|------------------------------------------------------------------|
|------------------------------------------------------------------|
|------------------------------------------------------------------|
|------------------------------------------------------------------|
|------------------0-0----0------------------0-0----0--------------|
|------------------0-0----0------------------0-0----0--------------|
|
|-13---12---10-10-13---12---10---10---13-12-10---10---13-12-10-10--|
|------------------------------------------------------------------|
|-10----9----7--7-10----9----7----7---10--9--7----7---10--9--7--7--|
|------------------------------------------------------------------|
|------------------------------------------------------------------|
|------------------------------------------------------------------|


|-------------------------------------------------|
|-------------------------------------------------|
|-------------------------------------------------|
|-------------------------------------------------|
|--0--0--0-----------------0--0--0----------------|
|--0--0--0-----------------0--0--0----------------|
|
|-------------------------------------------------|
|-------------------------------------------------|
|-------------------------------------------------|
|-------------------------------------------------|
|--------------0--0--0-----------------0--0--0----|
|--------------0--0--0-----------------0--0--0----|
|
|-12-13-15-13-12-13-15-13-12-13-15-13-12-13-15-13-|
|-------------------------------------------------|
|--9-10-12-10--9-10-12-10--9-10-12-10--9-10-12-10-|
|-------------------------------------------------|
|-------------------------------------------------|
|-------------------------------------------------|


|----------------------------------|
|----------------------------------|
|----------------------------------|
|----------------------------------|
|-0--0-0-----------0-0-0-----------|
|-0--0-0-----------0-0-0-----------|
|
|----------------------------------|
|----------------------------------|
|----------------------------------|
|----------------------------------|
|----------0-0-0-----------0-0-0---|
|----------0-0-0-----------0-0-0---|
|
|----------------------------------|
|------8-6-5-6-8-6-5-6-8-6-5-6-8-6-|
|-9-10-----------------------------|
|----------------------------------|
|----------------------------------|
|----------------------------------|


  Gtrs I, II
|---------------------------------|---------------------------------|
|---------------------------------|---------------------------------|
|---------------------------------|---------------------------------|
|---------------------------------|---------------------3-3-2-2-0-0-|
|-0-0-1-1-4-4-0-0-4-4-5-5-4-4-1-1-|-0-0-4-4-5-5-1-1-5-5-------------|
|---------------------------------|---------------------------------|


  Gtr I
|---------------------------------|---------------------------------|
|---------------------------------|---------------------------------|
|---------------------------------|---------------------------------|
|---------------------------------|---------------------------------|
|-0-0-1-1-4-4-0-0-4-4-5-5-4-4-1-1-|-1-1-1-1-1-1-4-4-5-5-5-5-4-4-4-4-|
|---------------------------------|---------------------------------|
|
| Gtr II
|---------------------------------|---------------------------------|
|---------------------------------|---------------------------------|
|---------------------------------|---------------------------------|
|---------------------------------|-0-0-0-0-0-0-2-2-3-3-3-3-2-2-2-2-|
|-0-0-1-1-4-4-----4-4-5-5-4-4-1-1-|---------------------------------|
|-------------7-7-----------------|---------------------------------|


|---------------------------------|---------------------------------|
|---------------------------------|---------------------------------|
|---------------------------------|---------------------------------|
|---------------------------------|---------------------3-3-2-2-0-0-|
|-0-0-1-1-4-4-0-0-4-4-5-5-4-4-1-1-|-0-0-4-4-5-5-1-1-5-5-------------|
|---------------------------------|---------------------------------|
|
|---------------------------------|---------------------------------|
|---------------------------------|---------------------------------|
|---------------------------------|---------------------------------|
|---------------------------------|---------------------3-3-2-2-0-0-|
|-0-0-1-1-4-4-0-0-4-4-5-5-4-4-1-1-|-0-0-4-4-5-5-1-1-5-5-------------|
|---------------------------------|---------------------------------|


|---------------------------------|---------------------------------|
|---------------------------------|---------------------------------|
|---------------------------------|---------------------------------|
|---------------------------------|---------------------------------|
|-0-0-1-1-4-4-0-0-4-4-5-5-4-4-1-1-|-1-1-1-1-1-1-4-4-5-5-5-5-1-1-4-4-|
|---------------------------------|---------------------------------|
|
|---------------------------------|---------------------------------|
|---------------------------------|---------------------------------|
|---------------------------------|---------------------------------|
|---------------------------------|---------------------------------|
|-0-0-1-1-4-4-0-0-4-4-5-5-4-4-1-1-|-5-5-5-5-5-5-7-7-8-8-8-8-5-5-7-7-|
|---------------------------------|---------------------------------|


|-----------------|---------------------|
|-----------------|---------------------|
|-----------------|---------------------|
|-----------------|---------------------|
|-0-3-0-3-3-2-0-3-|-0-3-3-2-0-0-0-0-0-0-|
|-0-3-0-3-3-2-0-3-|-0-3-3-2-0-0-0-0-0-0-|
|
|-----------------|---------------------|
|-----------------|---------------------|
|-----------------|---------------------|
|-----------------|---------------------|
|-----------------|---------------------|
|-----------------|---------0-0-0-0-0-0-|


|------------------|-----------------------|
|------------------|-----------------------|
|-------------6--7-|--7--9--9-10-10--9--9--|
|------------------|-----------------------|
|-0-3-0-3-3-2-4--5-|--5--7--7--8--8--7--7--|
|-0-3-0-3-3-2------|-----------------------|
|
|------------------|-----------------------|
|------------------|-----------------------|
|-------------9-10-|-10-12-12-13-13-12-12--|
|------------------|-----------------------|
|-0-3-0-3-3-2-7--8-|--8-10-10-11-11-10-10--|
|-0-3-0-3-3-2------|-----------------------|


|-----------------|---------------------|
|-----------------|---------------------|
|-----------------|---------------------|
|-----------------|---------------------|
|-0-3-0-3-3-2-0-3-|-0-3-3-2-0-0-0-0-0-0-|
|-0-3-0-3-3-2-0-3-|-0-3-3-2-0-0-0-0-0-0-|
|
|-----------------|---------------------|
|-----------------|---------------------|
|-----------------|---------------------|
|-----------------|---------------------|
|-0-3-0-3-3-2-0-3-|-0-3-3-2-0-0-0-0-0-0-|
|-0-3-0-3-3-2-0-3-|-0-3-3-2-0-0-0-0-0-0-|


|------------------|---------------------|
|------------------|---------------------|
|-------------9-10-|-10-11-11-10-10-9-9--|
|------------------|---------------------|
|-0-3-0-3-3-2-7--8-|--8--9--9--8--8-7-7--|
|-0-3-0-3-3-2------|---------------------|
|
|------------------|---------------------|
|------------------|---------------------|
|-------------6--7-|--7--9--9-10-10-9-9--|
|------------------|---------------------|
|-0-3-0-3-3-2-4--5-|--5--7--7--8--8-7-7--|
|-0-3-0-3-3-2------|---------------------|


|-----------------|---------------------|
|-----------------|---------------------|
|-----------------|---------------------|
|-----------------|---------------------|
|-0-3-0-3-3-2-0-3-|-0-3-3-2-0-0-0-0-0-0-|
|-0-3-0-3-3-2-0-3-|-0-3-3-2-0-0-0-0-0-0-|
|
|-----------------|---------------------|
|-----------------|---------------------|
|-----------------|---------------------|
|-----------------|---------------------|
|-0-3-0-3-3-2-0-3-|-0-3-3-2-0-0-0-0-0-0-|
|-0-3-0-3-3-2-0-3-|-0-3-3-2-0-0-0-0-0-0-|


|------------------|-----------------------|
|------------------|-----------------------|
|-------------6--7-|--7--9--9-10-10--9--9--|
|------------------|-----------------------|
|-0-3-0-3-3-2-4--5-|--5--7--7--8--8--7--7--|
|-0-3-0-3-3-2------|-----------------------|
|
|------------------|-----------------------|
|------------------|-----------------------|
|-------------9-10-|-10-12-12-13-13-12-12--|
|------------------|-----------------------|
|-0-3-0-3-3-2-7--8-|--8-10-10-11-11-10-10--|
|-0-3-0-3-3-2------|-----------------------|


|-----------------|---------------------|
|-----------------|---------------------|
|-----------------|---------------------|
|-----------------|---------------------|
|-0-3-0-3-3-2-0-3-|-0-3-3-2-0-0-0-0-0-0-|
|-0-3-0-3-3-2-0-3-|-0-3-3-2-0-0-0-0-0-0-|
|
|-----------------|---------------------|
|-----------------|---------------------|
|-----------------|---------------------|
|-----------------|---------------------|
|-0-3-0-3-3-2-0-3-|-0-3-3-2-0-0-0-0-0-0-|
|-0-3-0-3-3-2-0-3-|-0-3-3-2-0-0-0-0-0-0-|


|------------------|---------------------|
|------------------|---------------------|
|-------------9-10-|-10-11-11-10-10-9-9--|
|------------------|---------------------|
|-0-3-0-3-3-2-7--8-|--8--9--9--8--8-7-7--|
|-0-3-0-3-3-2------|---------------------|
|
|------------------|---------------------|
|------------------|---------------------|
|-------------6--7-|--7--9--9--7--7-6-6--|
|------------------|---------------------|
|-0-3-0-3-3-2-4--5-|--5--7--7--5--5-4-4--|
|-0-3-0-3-3-2------|---------------------|


               Q=145
  Gtrs I, II
|------------|---------------------------------|
|------------|---------------------------------|
|------------|---------------------------------|
|-2----3--5--|---------------------------------|
|-2----3--5--|---------------------------------|
|-2----3--5--|-0-0-0-0-0-0-0-0-0-0-0-0-0-0-0-0-|


  Gtr I
|---------------------------------|---------------------------------|
|---------------------------------|---------------------------------|
|---------------------------------|---------------------------------|
|---------------------------------|---------------------------------|
|---------------------------------|---------------------------------|
|-0-7-7-7-7-7-7-7-2-2-2-2-2-2-2-2-|-3-3-3-3-3-3-3-3-3-3-3-3-3-3-3-3-|
|
| Gtr II
|---------------------------------|---------------------------------|
|---------------------------------|---------------------------------|
|---------------------------------|---------------------------------|
|---------------------------------|---------------------------------|
|---------------------------------|---------------------------------|
|-7-7-7-7-7-7-7-7-2-2-2-2-2-2-2-2-|-3-3-3-3-3-3-3-3-3-3-3-3-3-3-3-3-|


|---------------------------------|---------------------------------|
|---------------------------------|---------------------------------|
|---------------------------------|---------------------------------|
|---------------------------------|---------------------------------|
|-----------------1-1-1-1-0-0-0-0-|---------------------------------|
|-5-5-5-5-5-5-5-5-----------------|-0-0-0-0-0-0-0-0-0-0-0-0-0-0-0-0-|
|
|---------------------------------|---------------------------------|
|---------------------------------|---------------------------------|
|---------------------------------|---------------------------------|
|---------------------------------|---------------------------------|
|---------------------------------|---------------------------------|
|-5-5-5-5-5-5-5-5-8-8-8-8-7-7-7-7-|-0-0-0-0-0-0-0-0-0-0-0-0-0-0-0-0-|


|---------------------------------|---------------------------------|
|---------------------------------|---------------------------------|
|---------------------------------|---------------------------------|
|---------------------------------|---------------------------------|
|-0-0-0-0-0-0-0-0-----------------|---------------------------------|
|-----------------2-2-2-2-2-2-2-2-|-3-3-3-3-3-3-3-3-3-3-3-3-3-3-3-3-|
|
|---------------------------------|---------------------------------|
|---------------------------------|---------------------------------|
|---------------------------------|---------------------------------|
|---------------------------------|---------------------------------|
|---------------------------------|---------------------------------|
|-7-7-7-7-7-7-7-7-2-2-2-2-2-2-2-2-|-3-3-3-3-3-3-3-3-3-3-3-3-3-3-3-3-|


|-----------------|
|-----------------|
|-----------------|
|-8--7------------|
|-8--7--3-3--3-3--|
|-8--7--3-3--3-3--|
|
|-----------------|
|-----------------|
|-----------------|
|-3--2------------|
|-1--0--3-3--3-3--|
|-------3-3--3-3--|
|
| Gtr III
|-----------------|
|-----------------|
|-----------------|
|-----------------|
|-----------------|
|-----------------|


|------------------------------------------------------------------|
|------------------------------------------------------------------|
|------------------------------------------------------------------|
|------------------------------------------------------------------|
|------------------------------------------------------------------|
|-0---0---0---0---0---0---0---0---0---0---0---0---0---0---0---0----|
|
|------------------------------------------------------------------|
|------------------------------------------------------------------|
|------------------------------------------------------------------|
|------------------------------------------------------------------|
|------------------------------------------------------------------|
|-0---0---0---0---0---0---0---0---0---0---0---0---0---0---0---0----|
|
|------------------------------------------------------------------|
|------------------------------------------------------------------|
|------------------------------------------------------------------|
|---------8-8---8-5-5---5-7-7---7-7-7---7-8-8---8-5-5---5-7-7---7--|
|-5-5---5----------------------------------------------------------|
|------------------------------------------------------------------|


  Gtrs I, II
|-----------------------------------------------------------------------|
|-----------------------------------------------------------------------|
|-----------------------------------------------------------------------|
|-----------------------------------------------------------------------|
|-0---0----0----0----0---0---0---0--------------------------------------|
|------------------------------------2---2----2----2----2---2---2---2---|
|
| Gtr III
|-----------------------------------------------------------------------|
|-----------------------------------------------------------------------|
|---------10-10---10-7-7---7-9-9---9-9-9---9-10-10---10-7-7---7-9-9---9-|
|-7-7---7---------------------------------------------------------------|
|-----------------------------------------------------------------------|
|-----------------------------------------------------------------------|


|--------------------------------------------------------------------------------|
|--------------------------------------------------------------------------------|
|--------------------------------------------------------------------------------|
|--------------------------------------------------------------------------------|
|--------------------------------------------------------------------------------|
|-3---3----3----3----3---3----3----3-----3----3-----3----3----3---3----3----3----|
|
|--------------------------------------------------------------------------------|
|---------11-11---11-8-8---8-10-10---10-10-10---10-11-11---11-8-8---8-10-10---10-|
|-7-7---7------------------------------------------------------------------------|
|--------------------------------------------------------------------------------|
|--------------------------------------------------------------------------------|
|--------------------------------------------------------------------------------|


  Gtr I
|----------------------------------------|
|----------------------------------------|
|----------------------------------------|
|----------------------------------------|
|---------------------1--1-1--1-0--0-0-0-|
|--5--5-5--5-5--5-5-5--------------------|
|
| Gtr II
|----------------------------------------|
|----------------------------------------|
|----------------------------------------|
|----------------------------------------|
|----------------------------------------|
|--5--5-5--5-5--5-5-5-8--8-8--8-7--7-7-7-|
|
| Gtr III
|----------------------------------------|
|-11-10-8-10-8-------------8-------------|
|--------------10-9-7-9-10---10-9-10-9---|
|----------------------------------------|
|----------------------------------------|
|----------------------------------------|


|--------------------------------------------------|
|--------------------------------------------------|
|--------------------------------------------------|
|--------------------------------------------------|
|--------------------------------------------------|
|--0---0--0--0--0--0--0--0-0--0--0--0--0--0--0-0---|
|
|--------------------------------------------------|
|--------------------------------------------------|
|--------------------------------------------------|
|--------------------------------------------------|
|--------------------------------------------------|
|--0---0--0--0--0--0--0--0-0--0--0--0--0--0--0-0---|
|
|--------------------------------------------------|
|-----13-11-10-11-10---------13-11-10-11-10--------|
|-(9)----------------12-10-9----------------12-9---|
|--------------------------------------------------|
|--------------------------------------------------|
|--------------------------------------------------|


|-------------------------------------------------|
|-------------------------------------------------|
|-------------------------------------------------|
|-------------------------------------------------|
|--0--0--0--0--0--0--0--0-------------------------|
|--------------------------2--2--2--2--2--2--2--2-|
|
|-------------------------------------------------|
|-------------------------------------------------|
|-------------------------------------------------|
|-------------------------------------------------|
|-------------------------------------------------|
|--7--7--7--7--7--7--7--7--2--2--2--2--2--2--2--2-|
|
|-------------------------------------------------|
|----15-13-11-13-11----------15-13-11-13-11-------|
|-10----------------14-12-10----------------14-12-|
|-------------------------------------------------|
|-------------------------------------------------|
|-------------------------------------------------|


|----------------------------------------------|
|----------------------------------------------|
|----------------------------------------------|
|----------------------------------------------|
|----------------------------------------------|
|-3--3--3--3--3--3--3--3-3--3--3--3--3--3--3-3-|
|
|----------------------------------------------|
|----------------------------------------------|
|----------------------------------------------|
|----------------------------------------------|
|----------------------------------------------|
|-3--3--3--3--3--3--3--3-3--3--3--3--3--3--3-3-|
|
|----------------------------------------------|
|---13-11-10-11-10---------13-11-10-11-10------|
|-9----------------12-10-9----------------12-9-|
|----------------------------------------------|
|----------------------------------------------|
|----------------------------------------------|


|-----------------------------------------|
|-----------------------------------------|
|-----------------------------------------|
|-----------------------------------------|
|----------------------1--1--1-1--0-0-0-0-|
|--5-5--5-5--5-5--5-5---------------------|
|
|-----------------------------------------|
|-----------------------------------------|
|-----------------------------------------|
|-----------------------------------------|
|-----------------------------------------|
|--5-5--5-5--5-5--5-5--8--8--8-8--7-7-7-7-|
|
|-----------------------------------------|
|-11--------------------------------------|
|-----------12---14---12-14-12---10---9---|
|------12---------------------------------|
|-----------------------------------------|
|-----------------------------------------|


|--------------------------------------------------|
|--------------------------------------------------|
|--------------------------------------------------|
|--------------------------------------------------|
|--------------------------------------------------|
|--0-0----0----0--0-0----0----0--0-0--0-0--0-0-0-0-|
|
|--------------------------------------------------|
|--------------------------------------------------|
|--------------------------------------------------|
|--------------------------------------------------|
|--------------------------------------------------|
|--0-0----0----0--0-0----0----0--0-0--0-0--0-0-0-0-|
|
|--------------------------------------------------|
|----------------15---17---18---17-----------------|
|-----------14-----------------------15---14-------|
|-12---15------------------------------------------|
|--------------------------------------------------|
|--------------------------------------------------|


|-------------------------------------------------------------|
|-------------------------------------------------------------|
|-------------------------------------------------------------|
|-------------------------------------------------------------|
|--0-0----0----0--0-0----0----0-------------------------------|
|--------------------------------2-2----2----2--2-2----2----2-|
|
|-------------------------------------------------------------|
|-------------------------------------------------------------|
|-------------------------------------------------------------|
|-------------------------------------------------------------|
|-------------------------------------------------------------|
|--7-7----7----7--7-7----7----7--2-2----2----2--2-2----2----2-|
|
|-------------------------------------------------------------|
|-17-------------18-------------17-------------14---15---17---|
|------15---14--------15---14--------15---14------------------|
|-------------------------------------------------------------|
|-------------------------------------------------------------|
|-------------------------------------------------------------|


|---------------------------------|
|---------------------------------|
|---------------------------------|
|---------------------------------|
|---------------------------------|
|-3-3-3-3-3-3-3-3-3-3-3-3-3-3-3-3-|
|
|---------------------------------|
|---------------------------------|
|---------------------------------|
|---------------------------------|
|---------------------------------|
|-3-3-3-3-3-3-3-3-3-3-3-3-3-3-3-3-|
|
|---------------------------------|
|---------------------------------|
|---------------------------------|
|---------------------------------|
|---------------------------------|
|---------------------------------|


|---------------------------------------|-----------------------------------|
|---------------------------------------|-----------------------------------|
|---------------------------------------|-----------------------------------|
|---------------------------------------|-----------------------------------|
|-------------------1-1-1--1--0--0-0--0-|-----------------------------------|
|-5-5-5-5-5-5-5--5----------------------|--0-0-0-0-0-0-0-0-0-0-0-0--0-0-0-0-|
|
|---------------------------------------|-----------------------------------|
|---------------------------------------|-----------------------------------|
|---------------------------------------|-----------------------------------|
|---------------------------------------|-----------------------------------|
|---------------------------------------|-----------------------------------|
|-5-5-5-5-5-5-5--5--8-8-8--8--7--7-7--7-|--0-0-0-0-0-0-0-0-0-0-0-0--0-0-0-0-|
|
| Gtr IV
|---------------------9---10-12-13---15-|-----------------------------------|
|-------5-6-8---10-11-------------------|-----------------------------------|
|-6-7-----------------------------------|-----------------------------------|
|---------------------------------------|-12--------------------------------|
|---------------------------------------|--------------------------12-------|
|---------------------------------------|-----------------------------------|


|------------------------------------|----------------------------------|
|------------------------------------|----------------------------------|
|------------------------------------|----------------------------------|
|------------------------------------|----------------------------------|
|--0-0-0-0-0-0-0-0-------------------|----------------------------------|
|-------------------2-2-2-2-2-2--2-2-|--3-3-3-3-3-3-3-3-3-3-3-3-3-3-3-3-|
|
|------------------------------------|----------------------------------|
|------------------------------------|----------------------------------|
|------------------------------------|----------------------------------|
|------------------------------------|----------------------------------|
|------------------------------------|----------------------------------|
|--7-7-7-7-7-7-7-7--2-2-2-2-2-2--2-2-|--3-3-3-3-3-3-3-3-3-3-3-3-3-3-3-3-|
|
|------------------------------------|----------------------------------|
|------------------------------------|----------------------------------|
|------------------------------------|----------------------------------|
|-14---------------12-----------14---|-15-------------------------------|
|------------------------------------|----------------------------------|
|------------------------------------|----------------------------------|


|------------------|-------------------------|---------------------------|
|------------------|-------------------------|---------------------------|
|------------------|-------------------------|---------------------------|
|------2-----------|-------------------------|-------------1-0---0-------|
|------0--3-3-3----|-2-2-2-----2-2-2-2-----2-|-2-2-2-----2-----2---3-0---|
|--3------3-3-3----|-2-2-2-3-2-2-2-2-2-3-2-2-|-2-2-2-3-2-2---------------|
|
|------------------|-------------------------|---------------------------|
|------------------|-------------------------|---------------------------|
|------------------|-------------------------|---------------------------|
|--3---2-----------|-------------------------|---------------------------|
|--1---0--3-3-3-3--|-2-2-2-----2-2-2-2-----2-|-2-2-2-----2-0-------------|
|---------3-3-3-3--|-2-2-2-3-2-2-2-2-2-3-2-2-|-2-2-2-3-2-2---6-3-6-3-2---|
|
|------------------|-------------------------|---------------------------|
|------------------|-------------------------|---------------------------|
|------------------|-------------------------|---------------------------|
|-15--14-----------|-------------------------|---------------------------|
|------------------|-------------------------|---------------------------|
|------------------|-------------------------|---------------------------|


|-------------------------|----------------------------|
|-------------------------|----------------------------|
|-------------------------|----------------------------|
|-------------------------|----------------------------|
|-2-2-2-----2-2-2-2-----2-|-6-5-2-5-3-0-6-5-2-8-5-2----|
|-2-2-2-3-2-2-2-2-2-3-2-2-|----------------------------|
|
|-------------------------|----------------------------|
|-------------------------|----------------------------|
|-------------------------|----------------------------|
|-------------------------|----------------------------|
|-2-2-2-----2-2-2-2-----2-|----------------------------|
|-2-2-2-3-2-2-2-2-2-3-2-2-|-7-6-3-9-6-2-7-6-3-9-6-3----|


||--------------------------|
||o-------------------------|
||--------------------------|
||--------------------------|
||o-2-2-2-3-2-2-2-2-2-3-2-2-|
||--2-2-2-3-2-2-2-2-2-3-2-2-|
|
||--------------------------|
||o-------------------------|
||--------------------------|
||--------------------------|
||o-2-2-2-3-2-2-2-2-2-3-2-2-|
||--2-2-2-3-2-2-2-2-2-3-2-2-|


|-------------------------|---------------------------|
|-------------------------|---------------------------|
|-------------------------|---------------------------|
|-------------------------|---------------------------|
|-2-2-2-----2-6-5-2-5-3-0-|-2-2-2-3-2-2-2-2-2-3-2-2---|
|-2-2-2-3-2-2-------------|-2-2-2-3-2-2-2-2-2-3-2-2---|
|
|-------------------------|---------------------------|
|-------------------------|---------------------------|
|-------------------------|---------------------------|
|-------------------------|---------------------------|
|-2-2-2-----2-------------|-2-2-2-3-2-2-2-2-2-3-2-2---|
|-2-2-2-3-2-2-7-6-3-6-3-2-|-2-2-2-3-2-2-2-2-2-3-2-2---|


                           3x
|--------------------------||
|-------------------------o||
|--------------------------||
|--------------------------||
|-6-5-2-5-3-0-6-5-2-8-5-2-o||
|--------------------------||
|
|                          3x
|--------------------------||
|-------------------------o||
|--------------------------||
|--------------------------||
|-------------------------o||
|-7-6-3-9-6-2-7-6-3-9-6-3--||


|--------------------------|-------------------------|
|--------------------------|-------------------------|
|--------------------------|-------------------------|
|--------------------------|-------------------------|
|--------2-2-2-3-3-3-0-0-0-|-5-5-5-3-3-3-2-3-5--7----|
|--2-2-2-------------------|-------------------------|
|
|--------------------------|-------------------------|
|--------------------------|-------------------------|
|--------------------------|-------------------------|
|--------------------------|-------------------------|
|--------2-2-2-3-3-3-0-0-0-|-5-5-5-3-3-3-------------|
|--2-2-2-------------------|-------------6-7-9-10----|


|-------------------------|------------------------|
|-------------------------|------------------------|
|-------------------------|------------------------|
|-------------------------|------------------------|
|-------2-2-2-3-3-3-0-0-0-|-3-2-0------------------|
|-2-2-2-------------------|-------6-7-9-12-10-6-3--|
|
|-------------------------|------------------------|
|-------------------------|------------------------|
|-------------------------|------------------------|
|-------------------------|------------------------|
|-------2-2-2-3-3-3-0-0-0-|-7-5-3-2-3-5--7--5-3-0--|
|-2-2-2-------------------|------------------------|


||--------------|---------------|
||o-------------|---------------|
||--------------|---------------|
||--------------|----2--0-------|
||o-0-----0--2--|-3--------2----|
||-----2--------|---------------|
|
||--------------|---------------|
||o-------------|---------------|
||--------------|---------------|
||--------------|---------------|
||o-0--------2--|-3--------2----|
||--------------|---------------|


                                    Q=164
                             4x
|--------------|-------------||||-----------------------------|
|--------------|------------o||||o----------------------------|
|--------------|-------------||||-----------------------------|
|--------------|-------------||||-----------------------------|
|--3-----2--3--|-5--3--2----o||||o-------------0-0-0-2-2-2----|
|-----3--------|----------5--||||--7-7-7-2-2-2----------------|
|
|                            4x
|--------------|-------------||||-----------------------------|
|--------------|------------o||||o----------------------------|
|--------------|-------------||||-----------------------------|
|--------------|-------------||||-----------------------------|
|-----------3--|-5----------o||||o----------------------------|
|-10--3--------|----3-----5--||||--7-7-7-7-7-7-7-7-7-9-9-9----|


|----------------------------------|-------------------------------|
|----------------------------------|-------------------------------|
|----------------------------------|-------------------------------|
|-----------2--2--2--0--0--0-------|-------------------------------|
|--3--3--3-------------------2-2-2-|--3--3--3-------2-2-2-3-3-3----|
|----------------------------------|----------3-3-3----------------|
|
|----------------------------------|-------------------------------|
|----------------------------------|-------------------------------|
|----------------------------------|-------------------------------|
|----------------------------------|-------------------------------|
|----------------------------------|----------------------3-3-3----|
|-10-10-10-10-10-10-10-10-10-9-9-9-|-10-10-10-3-3-3-3-3-3----------|


                              Q=114
|--------------------------||-||------------|--------------|
|-------------------------o||-||o-----------|--------------|
|--------------------------||-||------------|--------------|
|--------------------------||-||--7---3--0--|-2----3--5----|
|-5-5-5-3-3-3-2-2-2-------o||-||o-7---3--0--|-2----3--5----|
|-------------------5-5-5--||-||--7---3--0--|-2----3--5----|
|
|--------------------------||-||------------|--------------|
|-------------------------o||-||o-----------|--------------|
|--------------------------||-||------------|--------------|
|--------------------------||-||--7---3--0--|-2----3--5----|
|-5-5-5-------------------o||-||o-7---3--0--|-2----3--5----|
|-------3-3-3-3-3-3-5-5-5--||-||--7---3--0--|-2----3--5----|


                                  Q=130
|------------|-----------------||-------------------|-------------------|
|------------|----------------o||-------------------|-------------------|
|------------|-----------------||-7-7-7-7-7-7-10-10-|--9--9-9-9-9-9-2-2-|
|-7----3--0--|-2----3-3--3-3---||-7-7-7-7-7-7-10-10-|--9--9-9-9-9-9-2-2-|
|-7----3--0--|-2----3-3--3-3--o||-5-5-5-5-5-5--8--8-|--7--7-7-7-7-7-0-0-|
|-7----3--0--|-2----3-3--3-3---||-------------------|-------------------|
|
|------------|-----------------||-------------------|-------------------|
|------------|----------------o||-------------------|-------------------|
|------------|-----------------||-------------------|-------------------|
|-7----3--0--|-2----3-3--3-3---||-------------------|-------------------|
|-7----3--0--|-2----3-3--3-3--o||-0-----------------|-(0)---------------|
|-7----3--0--|-2----3-3--3-3---||-0-----------------|-(0)---------------|


|-------------------|--------------------|
|-------------------|--------------------|
|--3--3-3-3-3-3-7-7-|--6--6-6-6-2-2-2-2--|
|--3--3-3-3-3-3-7-7-|--6--6-6-6-2-2-2-2--|
|--1--1-1-1-1-1-5-5-|--4--4-4-4-0-0-0-0--|
|-------------------|--------------------|
|
|-------------------|--------------------|
|-------------------|--------------------|
|-------------------|--------------------|
|-------------------|--------------------|
|-(0)---------------|-(0)----------------|
|-(0)---------------|-(0)----------------|


  Q=130
|-----------------|---------------------|
|-3-3-3-3-3-3-6-6-|--5--5-5-5--5--5-----|
|-2-2-2-2-2-2-5-5-|--4--4-4-4--4--4--2--|
|-0-0-0-0-0-0-3-3-|--2--2-2-2--2--2--2--|
|-----------------|------------------0--|
|-----------------|---------------------|
|
|-----------------|---------------------|
|-----------------|---------------------|
|-----------------|------------------6--|
|-----------------|------------------6--|
|-0---------------|-(0)-------(0)----4--|
|-0---------------|-(0)-------(0)-------|


|-----------|------------|-----------------|-------------------------|
|--------3--|------------|-----------------|-------------------------|
|-3------2--|-6----------|-----------------|-------------------------|
|-3------0--|-6----0-0---|-----------------|-------------------------|
|-1---------|-4----0-0---|-0-0-0-0-0-0-0-0-|-0-0-0-0-0-0-0-0-0-0-0-0-|
|-----------|------0-0---|-0-0-0-0-0-0-0-0-|-0-0-0-0-0-0-0-0-0-0-0-0-|
|
|-----------|------------|-----------------|-------------------------|
|--------6--|-5----------|-----------------|-------------------------|
|-7------5--|-4----------|-----------------|-------------------------|
|-7------3--|-2----------|-----------------|-------------------------|
|-5---------|------0-0---|-0-0-0-0-0-0-0-0-|-0-0-0-0-0-0-0-0-0-0-0-0-|
|-----------|------0-0---|-0-0-0-0-0-0-0-0-|-0-0-0-0-0-0-0-0-0-0-0-0-|


  Gtrs I, II
|-----------------|-----------------|-----------------|
|-----------------|-----------------|-----------------|
|-----------------|-----------------|-----------------|
|-----------------|-----------------|-----------------|
|-0-0-0-0-0-0-----|-0-0-0-0-0-0-----|-0-0-0-0-0-0-0-0-|
|-0-0-0-0-0-0-----|-0-0-0-0-0-0-----|-0-0-0-0-0-0-0-0-|


|-------------------------|-----------------|-----------------|
|-------------------------|-----------------|-----------------|
|-------------------------|-----------------|-----------------|
|-------------------------|-----------------|-----------------|
|-0-0-0-0-0-0-0-0-0-0-0-0-|-0-0-0-0-0-0-----|-0-0-0-0-0-0-----|
|-0-0-0-0-0-0-0-0-0-0-0-0-|-0-0-0-0-0-0-----|-0-0-0-0-0-0-----|


  Q=114                   Q=103
  Gtr I
|-----------|-----------|-----------------|-------------------------|
|-----------|-----------|-----------------|-------------------------|
|-----------|-----------|-----------------|-------------------------|
|-5---------|-----------|-----------------|-------------------------|
|------7----|-8----5----|-0-0-0-0-0-0-0-0-|-0-0-0-0-0-0-0-0-0-0-0-0-|
|-----------|-----------|-0-0-0-0-0-0-0-0-|-0-0-0-0-0-0-0-0-0-0-0-0-|
|
| Gtr II
|-----------|-----------|-----------------|-------------------------|
|-----------|-----------|-----------------|-------------------------|
|-----------|-----------|-----------------|-------------------------|
|-8----5----|-7---------|-----------------|-------------------------|
|-----------|------9----|-0-0-0-0-0-0-0-0-|-0-0-0-0-0-0-0-0-0-0-0-0-|
|-----------|-----------|-0-0-0-0-0-0-0-0-|-0-0-0-0-0-0-0-0-0-0-0-0-|


  Gtrs I, II
|-----------------|-----------------|-----------------|
|-----------------|-----------------|-----------------|
|-----------------|-----------------|-----------------|
|-----------------|-----------------|-----------------|
|-0-0-0-0-0-0-----|-0-0-0-0-0-0-----|-0-0-0-0-0-0-0-0-|
|-0-0-0-0-0-0-----|-0-0-0-0-0-0-----|-0-0-0-0-0-0-0-0-|


|-------------------------|-----------------|-----------------|
|-------------------------|-----------------|-----------------|
|-------------------------|-----------------|-----------------|
|-------------------------|-----------------|-----------------|
|-0-0-0-0-0-0-0-0-0-0-0-0-|-0-0-0-0-0-0-----|-0-0-0-0-0-0-----|
|-0-0-0-0-0-0-0-0-0-0-0-0-|-0-0-0-0-0-0-----|-0-0-0-0-0-0-----|


|-----------------|-------------------------|-----------------|
|-----------------|-------------------------|-----------------|
|-----------------|-------------------------|-----------------|
|-----------------|-------------------------|-----------------|
|-0-0-0-0-0-0-0-0-|-0-0-0-0-0-0-0-0-0-0-0-0-|-0-0-0-0-0-0-----|
|-0-0-0-0-0-0-0-0-|-0-0-0-0-0-0-0-0-0-0-0-0-|-0-0-0-0-0-0-----|


|-----------------|-----------------|-------------------------|
|-----------------|-----------------|-------------------------|
|-----------------|-----------------|-------------------------|
|-----------------|-----------------|-------------------------|
|-0-0-0-0-0-0-----|-0-0-0-0-0-0-0-0-|-0-0-0-0-0-0-0-0-0-0-0-0-|
|-0-0-0-0-0-0-----|-0-0-0-0-0-0-0-0-|-0-0-0-0-0-0-0-0-0-0-0-0-|


  Gtr I
|-----------------|-----------------|------------|------------|
|-----------------|-----------------|------------|------------|
|-----------------|-----------------|------------|------------|
|-----------------|-----------------|-5----------|------------|
|-0-0-0-0-0-0-----|-0-0-0-0-0-0-----|-------7----|--8----5----|
|-0-0-0-0-0-0-----|-0-0-0-0-0-0-----|------------|------------|
|
| Gtr II
|-----------------|-----------------|------------|------------||
|-----------------|-----------------|------------|------------||
|-----------------|-----------------|------------|------------||
|-----------------|-----------------|-8----------|------------||
|-0-0-0-0-0-0-----|-0-0-0-0-0-0-----|------10----|-12----9----||
|-0-0-0-0-0-0-----|-0-0-0-0-0-0-----|------------|------------||




Tablature Legend
----------------
 h   - hammer-on
 p   - pull-off
 b   - bend
 pb  - pre-bend
 r   - bend release (if no number after the r, then release immediately)
 /\  - slide into or out of (from/to "nowhere")
 s   - legato slide
 S   - shift slide
  - natural harmonic
[n]  - artificial harmonic
n(n) - tapped harmonic
 ~   - vibrato
 tr  - trill
 T   - tap
 TP  - trem. picking
 PM  - palm muting
\n/  - tremolo bar dip; n = amount to dip
 \n  - tremolo bar down
 n/  - tremolo bar up
/n\  - tremolo bar inverted dip
 =   - hold bend; also acts as connecting device for hammers/pulls
 <>  - volume swell (louder/softer)
 x   - on rhythm slash represents muted slash
 o   - on rhythm slash represents single note slash

Misc Legend
-----------
 |  - bar
||  - double bar
||o - repeat start
o|| - repeat end
*|  - double bar (ending)
 :  - bar (freetime)
 $  - Segno
 &  - Coda
Добавлено: 31.07.2013
Другие материалы по этой песне:
  • Аккорды и текст

Страница создана 10.05.2012
http://primanota.ru/through-the-eyes-of-the-dead/truest-shade-of-crimson-chords.htm
Привет, Гость.
Предлагаем пройти революционный курс по гитаре.
Подарок от PrimaNota.Ru, забирай!