PrimaNota.ru - самый крупный в мире бесплатный архив песенных текстов, аккордов, табулатур и нот


Through The Eyes Of The Dead - To The Ruins - таба, видео

Регистрация Запомнить меня
Войти через:  Facebook Google Twitter Vk Yandex Mail.ru

Through The Eyes Of The Dead - To The Ruins - таба, видео

Печатать
Просмотров: 63
-------------------------------------------------------------------------------
			     TO THE RUINS - THROUGH THE EYES OF THE DEAD
-------------------------------------------------------------------------------
Tabbed by: The Casemaster
Email: gothman92@yahoo.com

Tuning: Drop B

I  P palm mute
I  * tremolo pick
| /  slide
| h  hammer-on
| p  pull-off

+++++++++++++++++++++++++++

Intro Part 1
Intro Part II
Verse 1
Bridge
Verse 2
Repeat Intro Part I
Solo
Verse 3
Repeat Intro Part II
Breakdown

===========
Intro Part 1 (0:00 - 0:17)
e|-------------------------------------------------------------------------------|
B|-------------------------------------------------------------------------------|
G|-------------------------------------------------------------------------------|
D|-------------------------------------------------------------------------------|
A|-------8/5/7--5/7----------8/5/7---5/7/5/4-------------------------------------|
E|----000--------------000-----------------------(x 2)---------------------------|


Intro Part II (0:17-0:30)
e|-------------------------------------------------------------------------------|
B|-------------------------------------------------------------------------------|
G|-------------------------------------------------------------------------------|
D|------------------------------------------------7*-10*-------------------------|
A|------------------------------------------6*-9*--------------------------------|
E|----0*-7*-10*-5*-8*-4*-5*-1*---0*-7*-10*-5*------------------------------------|

e|-------------------------------------------------------------------------------|
B|-------------------------------------------------------------------------------|
G|-------------------------------------------------------------------------------|
D|-------------------------------------------------------------------------------|
A|-------------------------------------------------------------------------------|
E|-0*-7*-10*-5*-8*-4*-5*-1*---0*-7*-0*-5/1---------------------------------------|

e|------------------------------------------------------------------------------|
B|------------------------------------------------------------------------------|
G|------------------------------------------------------------------------------|
D|----------------------------------5h8-----------------------------------------|
A|-------6p5-------------6h9------------------6p5-------------------------------|
E|--000------000-000-000-------000-------000-------000-000-0000-0000------------|


Verse 1 (0:25-0:47)
e|------------------------------------------------------------------------------|
B|------------------------------------------------------------------------------|
G|------------------------------------------------------------------------------|
D|----------------------------------5h8-----------------------------------------|
A|-------6p5-------------6h9------------------6p5-------------------------------|
E|--000------000-000-000-------000-------000-------000-000-8p5-000-7p4----------|

e|-------------------------------------------------------------------------------|
B|-------------------------------------------------------------------------------|
G|-----------------------------------------------------------5h8-----------------|
D|----------------------------------5h8----------------5h8----------5h8----------|
A|-------6p5-------------6h9-----------------6h9---------------------------------|
E|--000------000-000-000-------000-------000-------000------000--000----(x2)-----|


Bridge (0:47-1:04)
e|------------------------------------------------------------------------------|
B|------------------------------------------------------------------------------|
G|------------------------------------------------------------------------------|
D|------------------------------------------------------------------------------|
A|-5*-0*--------5*-0*------------5*-0*---------------0h1p0----------------------|
E|------4*-5*-7*-----444-555-444------4*-5*-7*--0-0-------0-0--4h5p4--1-0-------|
-|

e|------------------------------------------------------------------------------|
B|------------------------------------------------------------------------------|
G|------------------------------------------------------------------------------|
D|------------------------------------------------------------------------------|
A|-5*-0*--------5*-0*------------5*-0*---------------0h1p0----------------------|
E|------4*-5*-7*-----444-555-444------4*-5*-7*--0-0-------0-0--4h5p4--1-0-------|


Verse 2 (1:04 - 1:21)
e|------------------------------------------------------------------------------|
B|------------------------------------------------------------------------------|
G|------------------------------------------------------------------------------|
D|----------------------------------5h8-----------------------------------------|
A|-------6p5-------------6h9------------------6p5-------------------------------|
E|--000------000-000-000-------000-------000-------000-000-8p5-000-7p4----------|

e|-------------------------------------------------------------------------------|
B|-------------------------------------------------------------------------------|
G|-----------------------------------------------------------5h8-----------------|
D|----------------------------------5h8----------------5h8----------5h8----------|
A|-------6p5-------------6h9-----------------6h9---------------------------------|
E|--000------000-000-000-------000-------000-------000------000--000----(x2)-----|


Intro Part 1 Repeated  (1:21 - 1:38)
e|-------------------------------------------------------------------------------|
B|-------------------------------------------------------------------------------|
G|-------------------------------------------------------------------------------|
D|-------------------------------------------------------------------------------|
A|-------8/5/7--5/7----------8/5/7---5/7/5/4-------------------------------------|
E|----000--------------000-----------------------(x 2)---------------------------|


Solo (1:38  - 2:16)

I have no idea how to get this solo by ear, but the background guitar is essentially:
e|-------------------------------------------------------------------------------|
B|-------------------------------------------------------------------------------|
G|-------------------------------------------------------------------------------|
D|-------------------------------------------------------------------------------|
A|-------------------------------------------------------------------------------|
E|--0000-0000-0-0-0-0-0000----0000---0000-0000-0000-0-0-0-0-0000 (x3)------------|

e|-------------------------------------------------------------------------------|
B|-------------------------------------------------------------------------------|
G|-------------------------------------------------------------------------------|
D|-------------------------------------------------------------------------------|
A|-------------------------------------------------------------------------------|
E|--0000-0000-0-0-0-0-0000-0000-0000-0000-0000-(x 3)-----------------------------|

Verse 3 (2:16 - 2:34)
e|------------------------------------------------------------------------------|
B|------------------------------------------------------------------------------|
G|------------------------------------------------------------------------------|
D|----------------------------------5h8-----------------------------------------|
A|-------6p5-------------6h9------------------6p5-------------------------------|
E|--000------000-000-000-------000-------000-------000-000-8p5-000-7p4----------|

e|-------------------------------------------------------------------------------|
B|-------------------------------------------------------------------------------|
G|-----------------------------------------------------------5h8-----------------|
D|----------------------------------5h8----------------5h8----------5h8----------|
A|-------6p5-------------6h9-----------------6h9---------------------------------|
E|--000------000-000-000-------000-------000-------000------000--000----(x2)-----|

Intro Part II Repeated (2:33 - 2:50)
e|-------------------------------------------------------------------------------|
B|-------------------------------------------------------------------------------|
G|-------------------------------------------------------------------------------|
D|------------------------------------------------7*-10*-------------------------|
A|------------------------------------------6*-9*--------------------------------|
E|----0*-7*-10*-5*-8*-4*-5*-1*---0*-7*-10*-5*------------------------------------|

e|-------------------------------------------------------------------------------|
B|-------------------------------------------------------------------------------|
G|-------------------------------------------------------------------------------|
D|-------------------------------------------------------------------------------|
A|-------------------------------------------------------------------------------|
E|-0*-7*-10*-5*-8*-4*-5*-1*---0*-7*-0*-5/1---------------------------------------|

Breakdown (2:50 -End)
e|------------------------------------------------------------------------------|
B|------------------------------------------------------------------------------|
G|------------------------------------------------------------------------------|
D|------------------------------------------------------------------------------|
A|------------------------------------------------------------------------------|
E|--0000-0000-0-0-0-0-0000--0000--0000--0000-0000-0-0-0-0-0000--0000------------|

e|------------------------------------------------------------------------------|
B|------------------------------------------------------------------------------|
G|------------------------------------------------------------------------------|
D|------------------------------------------------------------------------------|
A|------------------------------------------------------------------------------|
E|-0000-0000-0000-0-0-0-0-0000-0000-0000-0000-0000-0000-0000-0-0-0-0-0000-------|

e|------------------------------------------------------------------------------|
B|------------------------------------------------------------------------------|
G|------------------------------------------------------------------------------|
D|------------------------------------------------------------------------------|
A|------------------------------------------------------------------------------|
E|-0000-0000-0000-0000-0--------------------------------------------------------|

This is a brutal and awesome song, and really fun to play. Enjoy! This is from the album 
which is quite possibly the greatest album ive ever heard. These are the notes i use to 
this song, and it sounds accurate to me.

NOTE: At the end of the bridge, i know those last few notes are different than how they 
it the first time around, but i just can't figure it out. dont email me or anything, i 
its wrong.
Добавлено: 21.10.2013
Вам также может быть интересно:
Другие материалы по этой песне:
  • Аккорды и текст

Страница создана 21.10.2013
http://primanota.ru/through-the-eyes-of-the-dead/to-the-ruins-chords.htm
Привет, Гость.
Предлагаем пройти революционный курс по гитаре.
Подарок от PrimaNota.Ru, забирай!