PrimaNota.ru - самый крупный в мире бесплатный архив песенных текстов, аккордов, табулатур и нот


Through The Eyes Of The Dead - To Take Comfort - таба, видео

Регистрация Запомнить меня
Войти через:  Facebook Google Twitter Vk Yandex Mail.ru

Through The Eyes Of The Dead - To Take Comfort - таба, видео

Печатать
Просмотров: 69
Q=165                        Q=140
 2/4               4/4
  Gtr I
  PM------------|       PM|
|-----------------|------------|------------|
|-----------------|------------|------------|
|-----------------|------------|------------|
|-----------------|-2----------|------------|
|-2-2-2-2-2-2-2-2-|-2---2-2----|-3----------|
|-0-0-0-0-0-0-0-0-|-0---0-0----|------4--3--|
|
| Gtr II
| PM------------|       PM|
|-----------------|------------|------------|
|-----------------|------------|------------|
|-----------------|------------|------------|
|-----------------|-2----------|-1----------|
|-2-2-2-2-2-2-2-2-|-2---2-2----|------3--1--|
|-0-0-0-0-0-0-0-0-|-0---0-0----|------------|


  Gtrs I, II
  PM--|                         PM--|
|-----------------------------|-----------------------------|
|-----------------------------|-----------------------------|
|-----------------------------|-----------------------------|
|-----------------------------|-----------------------------|
|-------7h9p7-10h12p10-9h10p9-|-------7h9p7-10h12p10-9h10p9-|
|-0-0-0-----------------------|-0-0-0-----------------------|


  PM--|   PM|   PM|        PM---|     PM|      PM|
|-----------------------|--------------------------------|
|-----------------------|--------------------------------|
|-----------------------|--------------------------------|
|-----------------------|--------------------------------|
|-------7-----9-----10--|----------9-------10-------12---|
|-8-8-8---8-8---8-8-----|-10-10-10---10-10----10-10------|


  Gtrs I, II
  PM--|                         PM--|
|-----------------------------|-----------------------------|
|-----------------------------|-----------------------------|
|-----------------------------|-----------------------------|
|-----------------------------|-------------12-10-9---------|
|-------7h9p7-10h12p10-9h10p9-|-------7h9p7---------12-10-9-|
|-0-0-0-----------------------|-0-0-0-----------------------|


  PM--|   PM|   PM|        PM---|     PM|      PM|
|-----------------------|--------------------------------|
|-----------------------|--------------------------------|
|-----------------------|--------------------------------|
|-----------------------|--------------------------------|
|-------7-----9-----10--|----------9-------10-------12---|
|-8-8-8---8-8---8-8-----|-10-10-10---10-10----10-10------|


  Gtr I
  PM--|                              PM--|
|----------------------------------|----------------------------------|
|----------------------------------|----------------------------------|
|----------------------------------|----------------------------------|
|----------------------------------|----------------------------------|
|--------7h=9p=7-10h12p10--9h10p=9-|--------7h=9p=7-10h12p10--9h10p=9-|
|-0-0-0----------------------------|-0-0-0----------------------------|
|
| Gtr II
| PM--|                              PM--|
|----------------------------------|----------------------------------|
|----------------------------------|----------------------------------|
|----------------------------------|----------------------------------|
|----------------------------------|----------------------------------|
|-------10h12p10-14h15p14-12h14p12-|-------10h12p10-14h15p14-12h14p12-|
|-0-0-0----------------------------|-0-0-0----------------------------|


  PM--|   PM|   PM|        PM---|     PM|      PM|
|-----------------------|--------------------------------|
|-----------------------|--------------------------------|
|-----------------------|--------------------------------|
|-----------------------|--------------------------------|
|-------7-----9-----10--|----------9-------10-------12---|
|-8-8-8---8-8---8-8-----|-10-10-10---10-10----10-10------|
|
| PM--|   PM|   PM|        PM---|     PM|      PM|
|-----------------------|--------------------------------|
|-----------------------|--------------------------------|
|-----------------------|--------------------------------|
|-----------------------|--------------------------------|
|-------7-----9-----10--|----------9-------10-------12---|
|-8-8-8---8-8---8-8-----|-10-10-10---10-10----10-10------|


  Gtr I
  PM--|                              PM--|
|----------------------------------|--------------------------------|
|----------------------------------|--------------------------------|
|----------------------------------|--------------------------------|
|----------------------------------|----------------12-10-9---------|
|--------7h=9p=7-10h12p10--9h10p=9-|--------7h=9p=7---------12-10-9-|
|-0-0-0----------------------------|-0-0-0--------------------------|
|
| Gtr II
| PM--|                              PM--|
|----------------------------------|--------------------------------|
|----------------------------------|--------------------------------|
|----------------------------------|--------------------------------|
|----------------------------------|----------------12-10-9---------|
|-------10h12p10-14h15p14-12h14p12-|-------10h12p10---------12-10-9-|
|-0-0-0----------------------------|-0-0-0--------------------------|


  PM--|   PM|   PM|        PM---|     PM|      PM|
|-----------------------|--------------------------------|
|-----------------------|--------------------------------|
|-----------------------|--------------------------------|
|-----------------------|--------------------------------|
|-------7-----9-----10--|----------9-------10-------12---|
|-8-8-8---8-8---8-8-----|-10-10-10---10-10----10-10------|
|
| PM--|   PM|   PM|        PM---|     PM|      PM|
|-----------------------|--------------------------------|
|-----------------------|--------------------------------|
|-----------------------|--------------------------------|
|-----------------------|--------------------------------|
|-------7-----9-----10--|----------9-------10-------12---|
|-8-8-8---8-8---8-8-----|-10-10-10---10-10----10-10------|


    Q=200
    Gtr I
||----------------------------------------------|
||o---------------------------------------------|
||----------------------------------------------|
||----------------------------------------------|
||o--7--7--7--7--7--7--7--7-5-5-5-5-------------|
||-----------------------------------8--8--8--8-|
|
|   Gtr II
||----------------------------------------------|
||o---------------------------------------------|
||----------------------------------------------|
||--10-10-10-10-10-10-10-10-9-9-9-9-------------|
||o---------------------------------12-12-12-12-|
||----------------------------------------------|


|----------------------------------------------|
|----------------------------------------------|
|----------------------------------------------|
|----------------------------------------------|
|-------------------------------------5-5-5-5--|
|--7--7--7--7--7--7--7--7--8--8--8--8----------|
|
|----------------------------------------------|
|----------------------------------------------|
|----------------------------------------------|
|-------------------------------------9-9-9-9--|
|-10-10-10-10-10-10-10-10-12-12-12-12----------|
|----------------------------------------------|


  Gtr I
|---------------------------------------------|
|---------------------------------------------|
|---------------------------------------------|
|---------------------------------------------|
|--7--7--7--7--7--7--7--7-5-5-5-5-------------|
|----------------------------------8--8--8--8-|
|
| Gtr II
|---------------------------------------------|
|---------------------------------------------|
|---------------------------------------------|
|-10-10-10-10-10-10-10-10-9-9-9-9-------------|
|---------------------------------12-12-12-12-|
|---------------------------------------------|


|--------------------------------------------------||
|-------------------------------------------------o||
|--------------------------------------------------||
|--------------------------------------------------||
|-10-10-10-10-10-10-10-10--9--9--9--9-------------o||
|-------------------------------------10-10-10-10--||
|
|--------------------------------------------------||
|-------------------------------------------------o||
|--------------------------------------------------||
|-14-14-14-14-14-14-14-14-12-12-12-12--------------||
|-------------------------------------14-14-14-14-o||
|--------------------------------------------------||


  Q=210
 3/4
  Gtrs I, II
  PM--------------------------------------------------|
|-------------|-------------|-------------|-------------|
|-------------|-------------|-------------|-------------|
|-------------|-------------|-------------|-------------|
|-------------|-------------|-------------|-------------|
|-0-5-2-0-4-1-|-0-5-2-0-4-1-|-0-5-2-0-4-1-|-0-5-2-0-4-1-|
|-0-5-2-0-4-1-|-0-5-2-0-4-1-|-0-5-2-0-4-1-|-0-5-2-0-4-1-|


    Q=190
   4/4                    3/4
    Gtrs I, II
    PM------|  PM-----|    PM------|  PM-------|  PM-----|
                                                             4x
||-----------------------|-----------------|-----------------||
||o----------------------|-----------------|----------------o||
||-----------------------|-----------------|-----------------||
||-----------------------|-----------------|-----------------||
||o-2-2-2-2-2--2-2--2-2--|-2-2-2-2-2--2-2--|-2-2--2-2--2-2--o||
||--0-0-0-0-0--0-0--0-0--|-0-0-0-0-0--0-0--|-0-0--0-0--0-0---||


  Q=160
  Gtr I
                PM--------------------------------------|
                                                            4x
|-------------|-------------||--------------|---------------||
|-------------|-------------||o-------------|--------------o||
|-------------|-------------||--------------|---------------||
|-------------|-2-3-5---5---||--2-3-5---5---|-2-3-5---5-----||
|-------------|-2-3-5-0-5-0-||o-2-3-5-0-5-0-|-2-3-5-0-5-0--o||
|-------------|-0-1-3-0-3-0-||--0-1-3-0-3-0-|-0-1-3-0-3-0---||
|
| Gtr II
| PM--------|                   PM----------------------|
|                                                           4x
|-------------|-------------||--------------|---------------||
|-------------|-------------||o-------------|--------------o||
|-------------|-------------||--------------|---------------||
|-2-3-5---5---|-------------||--2-3-5---5---|-2-3-5---5-----||
|-2-3-5-0-5-0-|-------------||o-2-3-5-0-5-0-|-2-3-5-0-5-0--o||
|-0-1-3-0-3-0-|-------------||--0-1-3-0-3-0-|-0-1-3-0-3-0---||


    Q=220
    Gtrs I, II
       PM  PM  PM     PM  PM  PM    PM  PM  PM    PM  PM  PM
||---------------|--------------|-------------|-------------|
||o--------------|--------------|-------------|-------------|
||---------------|--------------|-------------|-------------|
||---------------|--------------|-------------|-------------|
||o-10---9---7---|-10---9---7---|-6---7---9---|-6---7---9---|
||-----0---0---0-|----0---0---0-|---0---0---0-|---0---0---0-|


  Gtr I
     PM  PM  PM     PM  PM  PM
|--------------|--------------|---------------------------------|
|--------------|--------------|---------------------------------|
|--------------|--------------|---------------------------------|
|--------------|--------------|---------------------------------|
|-10---9---7---|-10---9---7---|---------10-10-10-10-12-12-12-12-|
|----0---0---0-|----0---0---0-|-8-8-8-8-------------------------|
|
| Gtr II
|    PM  PM  PM     PM  PM  PM
|--------------|--------------|---------------------------------|
|--------------|--------------|---------------------------------|
|--------------|--------------|---------------------------------|
|--------------|--------------|----------9--9--9--9-10-10-10-10-|
|-10---9---7---|-10---9---7---|-7-7-7-7-------------------------|
|----0---0---0-|----0---0---0-|---------------------------------|


                               4x
|------------------------------||
|-----------------------------o||
|------------------------------||
|------------------------------||
|---------10-10-10-10-9-9-9-9-o||
|-7-7-7-7----------------------||
|
|                              4x
|------------------------------||
|-----------------------------o||
|------------------------------||
|----------9--9--9--9-7-7-7-7--||
|-5-5-5-5---------------------o||
|------------------------------||


    Q=160
   4/4                                    3/4
    Gtrs I, II
    PM----------|         PM-----------|     PM----|
                                                      4x
||----------------|----------|-----------|------------||
||o---------------|----------|-----------|-----------o||
||----------------|----------|-----------|------------||
||----------------|----------|-----------|------------||
||o-2-2-2-2---2-2-|-------2--|-----2-2---|---2--2--2-o||
||--0-0-0-0---0-0-|-------0--|-----0-0---|---0--0--0--||


  Q=180
 4/4
  Gtrs I, II
         PM|          PM|          PM|
|------------|------------|------------|----------|
|------------|------------|------------|----------|
|------------|-3----------|------------|-3----2---|
|-5----------|-3----------|-4----------|-3----2---|
|-5----------|-1----------|-4----------|-1----0---|
|-3------0-0-|--------0-0-|-2------0-0-|----------|


  Gtrs I, II
               PM|              PM|              PM|
|------------------|----------------|----------------|-----------|
|------------------|----------------|----------------|-----------|
|------------------|---3------------|----------------|-3----2----|
|--5---------------|---3------------|---4------------|-3----2----|
|--5---------------|---1------------|---4------------|-1----0----|
|--3-----------0-0-|------------0-0-|---2--------0-0-|-----------|
|
| Gtr III
|------------------|----------------|----------------|-----------|
|------------------|----------------|----------------|-----------|
|-<7>pb9===========|=(<7>)r=========|=(<7>)----------|-----------|
|------------------|----------------|----------------|-----------|
|------------------|----------------|----------------|-----------|
|------------------|----------------|----------------|-----------|


  Gtrs I, II
                              PM---|
|---------------------------------------|
|---------------------------------------|
|---------------------------------------|
|--5------------------------------------|
|--5------------------------------------|
|--3--------------------------0----0----|
|
| Gtr III
|----------------------------15-16---15-|
|-15-13-15-16-15-16-18-16-18------------|
|---------------------------------------|
|---------------------------------------|
|---------------------------------------|
|---------------------------------------|


|------------------------------------------|
|------------------------------------------|
|--3---------------------------------------|
|--3---------------------------------------|
|--1---------------------------------------|
|--------------------------------0----0----|
|
|-18-16-15----15-16-16p15------------------|
|----------18-------------18-16-18-16---15-|
|------------------------------------------|
|------------------------------------------|
|------------------------------------------|
|------------------------------------------|

                         PM---|
|----------------------------------|-------------------------------------|
|----------------------------------|-------------------------------------|
|----------------------------------|--3-----------------2----------------|
|--4-------------------------------|--3-----------------2----------------|
|--4-------------------------------|--1-----------------0----------------|
|--2---------------------0----0----|-------------------------------------|
|
|----------------------------------|-------------------16----------------|
|-----------------------16------16-|-18-20-18-16-18-20----20-18-16-------|
|-16--17-16-17-19-17-19----19------|-------------------------------19-17-|
|----------------------------------|-------------------------------------|
|----------------------------------|-------------------------------------|
|----------------------------------|-------------------------------------|


  Gtrs I, II
                         PM---|                     PM|
|----------------------------------|--------------------|
|----------------------------------|--------------------|
|----------------------------------|--3-----------------|
|--5-------------------------------|--3-----------------|
|--5-------------------------------|--1-----------------|
|--3---------------------0----0----|----------------0-0-|
|
| Gtr III
|  ~~                                      ~~~~
|----------------------------------|--------------------|
|----------------------------------|-----[19]-----------|
|----------------------------------|-17--------20--19---|
|--------------15----15-17-18---17-|--------------------|
|-15--18-17-18----18---------------|--------------------|
|----------------------------------|--------------------|


                     PM|
|----------------------------------------|-----------------|
|----------------------------------------|-----------------|
|----------------------------------------|--3-------2------|
|--4-------------------------------------|--3-------2------|
|--4-------------------------------------|--1-------0------|
|--2-----------------0--0----------------|-----------------|
|
|----------------------------------------|-----------------|
|----------------------------------------|-----------------|
|-19h20-19-17-19-17-16-17-16----16-------|---------17--16--|
|----------------------------18----18-17-|-18--17----------|
|----------------------------------------|-----------------|
|----------------------------------------|-----------------|


    Gtrs I, II
                              PM----|
||---------------------------------------|
||o--------------------------------------|
||---------------------------------------|
||---5-----------------------------------|
||o--5-----------------------------------|
||---3------------------------0-----0----|
|
|   Gtr III
||---------------------------------------|
||o--------------------------------------|
||-----17tr20------17tr20----22tr19------|
||--21----------21--------21----------21-|
||o--------------------------------------|
||---------------------------------------|


                            PM-----------|
|-------------------------------------------------|
|-------------------------------------------------|
|--3----------------------------------------------|
|--3----------------------------------------------|
|--1----------------------------------------------|
|---------------------------0-------------0-------|
|
|-------------------------------------------------|
|-------------------------------------------------|
|----17tr20------17tr20----17tr20-22tr19-17tr20---|
|-21----------21--------21----------------------21|
|-------------------------------------------------|
|-------------------------------------------------|


  Gtrs I, II
                            PM----|
|--------------------------------------|
|--------------------------------------|
|--------------------------------------|
|--4-----------------------------------|
|--4-----------------------------------|
|--2------------------------0-----0----|
|
| Gtr III
|--------------------------------------|
|--------------------------------------|
|----17tr20------17tr20----22tr19------|
|-21----------21--------21----------21-|
|--------------------------------------|
|--------------------------------------|


|---------------------------------------------------||
|--------------------------------------------------o||
|--3--------------2---------------------------------||
|--3--------------2---------------------------------||
|--1--------------0--------------------------------o||
|---------------------------------------------------||
|
|---------------------------------------------------||
|--------------------------------------------------o||
|----17tr20------17tr20----17tr20-22tr19-17tr20-----||
|-21----------21--------21----------------------21--||
|--------------------------------------------------o||
|---------------------------------------------------||


  Q=240
  Gtr I
|-----------------------------------------|
|-----------------------------------------|
|-----------------------------------------|
|-----------------------------------------|
|-----------------------------------------|
|-----------------------------------------|
|
| Gtr II
|-----------------------------------------|
|-----------------------------------------|
|-----------------------------------------|
|-----------------------------------------|
|-----------------11-11-11-11-10-10-10-10-|
|-8-8-8-8-8-8-8-8-------------------------|


  Gtr I
|-----------------------------------------|
|-----------------------------------------|
|-----------------------------------------|
|-----------------------------------------|
|-----------------------------------------|
|-----------------------------------------|
|
| Gtr II
|-----------------------------------------|
|-----------------------------------------|
|-----------------------------------------|
|-----------------------------------------|
|-----------------------------------------|
|-7-7-7-7-7-7-7-7-11-11-11-11-10-10-10-10-|


                                            PM|      PM---|      PM
|-----------------------------------------|------------------------|
|-----------------------------------------|------------------------|
|-----------------------------------------|------------------------|
|-----------------------------------------|------------------------|
|-----------------------------------------|------10----------11----|
|-----------------------------------------|-8-11----11-10-13----13-|
|
|                                           PM|      PM---|      PM
|-----------------------------------------|------------------------|
|-----------------------------------------|------------------------|
|-----------------------------------------|------------------------|
|-----------------------------------------|------------------------|
|-----------------11-11-11-11-10-10-10-10-|------10----------11----|
|-8-8-8-8-8-8-8-8-------------------------|-8-11----11-10-13----13-|


  Gtrs I, II
|-----------------------------------------|
|-----------------------------------------|
|-----------------------------------------|
|-----------------------------------------|
|-----------------11-11-11-11-10-10-10-10-|
|-8-8-8-8-8-8-8-8-------------------------|


|-----------------------------------------|
|-----------------------------------------|
|-----------------------------------------|
|-----------------------------------------|
|-----------------------------------------|
|-7-7-7-7-7-7-7-7-11-11-11-11-10-10-10-10-|

                                                 PM---------|
|-----------------------------------------|--------------------|
|-----------------------------------------|--------------------|
|-----------------------------------------|--------------------|
|-----------------------------------------|--------------------|
|-----------------11-11-11-11-10-10-10-10-|-8h10-6-------------|
|-8-8-8-8-8-8-8-8-------------------------|--------10-8-7-8-10-|


  Gtrs I, II
|-----------------------------------------|
|-----------------------------------------|
|-----------------------------------------|
|-----------------------------------------|
|-----------------11-11-11-11-10-10-10-10-|
|-8-8-8-8-8-8-8-8-------------------------|

|-----------------------------------------|
|-----------------------------------------|
|-----------------------------------------|
|-----------------------------------------|
|-----------------------------------------|
|-7-7-7-7-7-7-7-7-11-11-11-11-10-10-10-10-|

                                            PM|      PM---|      PM
|-----------------------------------------|------------------------|
|-----------------------------------------|------------------------|
|-----------------------------------------|------------------------|
|-----------------------------------------|------------------------|
|-----------------11-11-11-11-10-10-10-10-|------10----------11----|
|-8-8-8-8-8-8-8-8-------------------------|-8-11----11-10-13----13-|


  Gtrs I, II
|-----------------------------------------|
|-----------------------------------------|
|-----------------------------------------|
|-----------------------------------------|
|-----------------11-11-11-11-10-10-10-10-|
|-8-8-8-8-8-8-8-8-------------------------|


|-----------------------------------------|
|-----------------------------------------|
|-----------------------------------------|
|-----------------------------------------|
|-----------------------------------------|
|-7-7-7-7-7-7-7-7-11-11-11-11-10-10-10-10-|

                                                 PM---------|
|-----------------------------------------|--------------------|
|-----------------------------------------|--------------------|
|-----------------------------------------|--------------------|
|-----------------------------------------|--------------------|
|-----------------11-11-11-11-10-10-10-10-|-8h10-6-------------|
|-8-8-8-8-8-8-8-8-------------------------|--------10-8-7-8-10-|


    Q=260
    Gtrs I, II
                     PM---------|                    PM---------|
||------------|--------------------|----------|---------------------|
||o-----------|--------------------|----------|---------------------|
||------------|--------------------|----------|---------------------|
||--10--------|--------------------|-6--------|---------------------|
||o-10--------|-8h10-6-------------|-6--------|-8h10-6--------------|
||---8--------|--------10-8-7-8-10-|-4--------|--------10-8-7-8-10--|


  Gtrs I, II
                  PM---------|               PM|      PM--|     PM
                                                                   4x
|----------|--------------------|----------|-----------------------||
|----------|--------------------|----------|----------------------o||
|----------|--------------------|----------|-----------------------||
|-8--------|--------------------|-5--------|-----------------------||
|-8--------|-8h10-6-------------|-5--------|------10---------8----o||
|-6--------|--------10-8-7-8-10-|-3--------|-8-11----11-7-10---10--||


    Gtrs I, II
    PM----------------------------------------------------------------|
                                                                           4x
||--------------|------------|---------------------|-----------------------||
||o-------------|------------|---------------------|----------------------o||
||--------------|------------|---------------------|-----------------------||
||----2-----2---|-(2)--------|-(2)-----------------|-----------------------||
||o-2-2---2-2---|-(2)--------|-(2)--2-2--2-2--2-2--|-2-2--2-2--2-2--2-2---o||
||--0-0---0-0---|-(0)--------|-(0)--0-0--0-0--0-0--|-0-0--0-0--0-0--0-0----||


                           Q=200
  Gtrs I, II
  PM------|
|-------------|------------|------------|--------|
|-------------|------------|------------|--------|
|-------------|------------|------------|--------|
|---2-----2---|-(2)--------|-(2)--------|-(2)----|
|-2-2---2-2---|-(2)--------|-(2)--------|-(2)----|
|-0-0---0-0---|-(0)--------|-(0)--------|-(0)----|


    Gtrs I, II
    PM----------------------------------------------------------------|
                                                                           4x
||--------------|------------|---------------------|-----------------------||
||o-------------|------------|---------------------|----------------------o||
||--------------|------------|---------------------|-----------------------||
||----2-----2---|-(2)--------|-(2)-----------------|-----------------------||
||o-2-2---2-2---|-(2)--------|-(2)--2-2--2-2--2-2--|-2-2--2-2--2-2--2-2---o||
||--0-0---0-0---|-(0)--------|-(0)--0-0--0-0--0-0--|-0-0--0-0--0-0--0-0----||


  Gtrs I, II
  PM------------|
|-------------|------------|----------*|
|-------------|------------|----------*|
|-------------|------------|----------*|
|---2-----2---|-(2)--------|-(2)------*|
|-2-2---2-2---|-(2)--------|-(2)------*|
|-0-0---0-0---|-(0)--------|-(0)------*|

Добавлено: 20.07.2013
Другие материалы по этой песне:
  • Аккорды и текст

Страница создана 20.07.2013
http://primanota.ru/through-the-eyes-of-the-dead/to-take-comfort-chords.htm
Привет, Гость.
Предлагаем пройти революционный курс по гитаре.
Подарок от PrimaNota.Ru, забирай!