PrimaNota.ru - самый крупный в мире бесплатный архив песенных текстов, аккордов, табулатур и нот


Through The Eyes Of The Dead - Failure In The Flesh - таба, бас-таба, видео

Регистрация Запомнить меня
Войти через:  Facebook Google Twitter Vk Yandex Mail.ru

Through The Eyes Of The Dead - Failure In The Flesh - таба, бас-таба, видео

Печатать
Просмотров: 71
Artist: Through The Eyes Of The Dead
Song: Failure In The Flesh

(Start of Riff #1)
c#------------------------------------------------------------|
g#------------------------------------------------------------|
e --------------------------------------------------------5/8-|
b --------------------------------------------------------X-X-|
f#-------------000---------111-----------------000--------3/6-|
b -111-000-444-----444-000-----555-111-000-111-----444-000----|
pm ... ... ... ... ... ... ... ... ... ... ... ... ... ...
                                              (End Of Riff #1)
c#------------------------------------------------------------|
g#------------------------------------------------------------|
e ------------------------------------------------------------|
b ---------------------------------1-000-000-000-4-000-4/7----|
f#-------------000---------111-----1-000-000-000-4-000-4/7----|
b -111-000-444-----444-000-----555-1-000-000-000-4-000-4/7----|
pm ... ... ... ... ... ... ... ...   ... ... ...   ...

Play riff #1 twice.  Then play Riff #2 twice

(Start of Riff #2) all single notes are trem picked,chords are the exception
c#-------------------------------------------------------------------------|
g#-------------------------------------------------------------------------|
e----------------------------------------------------------------------5/8-|
b ---------------------------------------------------------------------X-X-|
f#--------------0000-----------1111---------------------0000-----------3/6-|
b 1111-0000-4444-----4444-0000------5555-1111-0000-4444------4444-0000-----|

                                                   (End of Riff #2)
c#-----------------------------------------------------------------|
g#-----------------------------------------------------------------|
e -----------------------------------------------------------------|
b -----------------------------------------1-000-000-000-1-000-4/7-|
f#----------------0000-----------1111------1-000-000-000-1-000-4/7-|
b -1111-0000-4444------4444-0000------5555-1-000-000-000-1-000-4/7-|
pm                                           ... ... ...   ...

after you play riff #2 twice play this little bridge to riff #3

c#-------------------------|
g#-------------------------|
e -------------------------|
b -1-000-000-000-1-000-4\1-|
f#-1-000-000-000-1-000-4\1-|
b -1-000-000-000-1-000-4\1-|
pm   ... ... ...   ...

(Start Riff #3)
c#------------------------------------------------------------------|
g#------------------------------------------------------------------|
e ------------------------------------------------------------------|
b ------------------------------------------------------------------|
f#-5---5---5h6p5---9---10-9-6---6h9-5---5---5---5h6p5---------------|
b ---0---0-------0---0--------0-------0---0---0-------000-00-000-00-|
pm   .   .       .   .        .       .   .   .       ... .. ... ..
                                               (End of Riff #3)

c#-----------------------------------------------------------------|
g#-----------------------------------------------------------------|
e -----------------------------------------------------------------|
b -----------------4---8-7-5---4h5-4---4---4---4h5p4---------------|
f#-5---5---5h6p5---------------------------------------------------|
b ---0---0-------0---0-------0-------0---0---0-------111-11-111-11-|
pm   .   .       .   .       .       .   .   .       ... .. ... ..

there's a little break after this riff where the vocalist comes in and then the music
up again and you have to play this riff like 2 more times or something...l

riff4
c#---------------------------------------------------|
g#---------------------------------------------------|
e ---------------------------------------------------|
b -------------------------------------------4h7-----|
f#--5-000-0-5/9-000-0-5/7-000-0--------4-5-7---------|
b --5-000-0-5/9-000-0-5/7-000-0--4-5-7---------------|
pm    ... .     ... .     ... .

c#----------------------------------------------------------|
g#----------------------------------------------------------|
e ----------------------------------------------------------|
b -------------------------------------4h7-------------6h9--|
f#--5-000-0-5/9-000-0-5/7--------4-5-7-----------6-7-9------|
b --5-000-0-5/9-000-0-5/7--4-5-7-----------6-7-9------------|
pm    ... .     ... .

riff5
guitar1
c#---------------------------------------------------------------|
g#---------------------------------------------------------------|
e --7---3---11---12---13---15---14---11--------------------------|
b --x---x---x-----x----x----x----x---x---------------------------|
f#--5---5---9----10---11---13---12---9--0-0-0-0-0-0--------------|
b --------------------------------------0-0-0-0-0-0--------------|
pm                                      . . . . . .
       guitar1 and 2 play these at the same time
guitar2
c#--------------------------------------------------|
g#--------------------------------------------------|
e --7/8\7/8-------------7/8\7/8---------------------|
b --x-x-x-x--8--4-5-1---x-x-x-x--8--4---------------|
f#--5/6\5/6--x--x-x-x---5/6\5/6--x--x---0-0-0-0-0-0-|
b -----------8--4-5-1------------8--4---0-0-0-0-0-0-|
pm                                      . . . . . .

c#----------------------------------|
g#----------------------------------|
e ----------------------------------|
b ----------------------------------|
f#--0-0-0-0-0-0-------0-0-0-0-0-0---|
b --0-0-0-0-0-0-------0-0-0-0-0-0---|
pm  . . . . . .       . . . . . .

c#------------------------------------------------------------------|
g#------------------------------------------13-11-10----------------|
e ---------------------------------------------------12-11-8-11-12--|
b ------------------------------------------------------------------|
f#--000-0-0-0-0-/10b-0-0-0-0-000-0-0-0-0----------------------------|
b --000-0-0-0-0------0-0-0-0-000-0-0-0-0----------------------------|
pm  ... . . . .      . . . . ... . . . .

c#-------------------------------------------------------|
g#--------------------------------------10-8-7-----------|
e ---------------------------------------------8-7-5-7-8-|
b -------------------------------------------------------|
f#--000-0-0-0-0-/8b-0-0-0-0-000-0-0-0-0------------------|
b --000-0-0-0-0-----0-0-0-0-000-0-0-0-0------------------|
pm  ... . . . .     . . . . ... . . . .

c#----------------------------------------------------------------|
g#-----------------------------------------13-11-10---------------|
e --------------------------------------------------12-11-8-11-12-|
b ----------------------------------------------------------------|
f#--000-0-0-0-0-/10b-0-0-0-0-000-0-0-0-0--------------------------|
b --000-0-0-0-0------0-0-0-0-000-0-0-0-0--------------------------|
pm  ... . . . .      . . . . ... . . . .

c#-------------------------------------------------------------------------|
g#-------------------------------------10-8-7------------10-8-7------------|
e --------------------------------------------8-7-5-7-8---------8-7-5-7-8--|
b -------------------------------------------------------------------------|
f#--000-0-0-0-0-/8b-0-0-0-0-000-0-0-0-0------------------------------------|
b --000-0-0-0-0-----0-0-0-0-000-0-0-0-0------------------------------------|
pm  ... . . . .     . . . . ... . . . .

c#--------------------------------------------------------|
g#--13-11-10---------------------------------10h13--------|
e -----------12-11-8-11-12----------------11--------------|
b ----------------------------------10h13-----------------|
f#--------------------------9-10-12-----------------------|
b --------------------------------------------------------|

c#--------------------------------------|
g#--------------------------------------|
e --------------------------------------|
b --------------------------------------| repeat 3x's
f#--0-0-0-0-0-0-0-0-0-0-0-0-000-0-0-000-|
b --0-0-0-0-0-0-0-0-0-0-0-0-000-0-0-000-|
pm  . . . . . . . . . . . . ... . . ...

then
c#----------------------------------|
g#----------------------------------|
e ----------------------------------|
b ----------------------------------|
f#--0-0-0-0-0-0-0-000-0-0-000-000---|
b --0-0-0-0-0-0-0-000-0-0-000-000---|
pm  . . . . . . . ... . . ... ...

c#------------------------------------------------------------|
g#------------------------------------------------------------|
e ------------------------------------------------------------|
b ------------------------------------------------------------|
f#--000-0-0-0-0----0-0-0-0-000-0-0-0-0---0-0-0-0-000-0-0-0-0--|
b --000-0-0-0-0----0-0-0-0-000-0-0-0-0---0-0-0-0-000-0-0-0-0--|
pm  ... . . . .    . . . . ... . . . .   . . . . ... . . . .

c#--------------------------------|
g#--------------------------------|
e --------------------------------|
b --------------------------------|
f#--0-0-0-0-000-0-0-0-0---0-12/1--|
b --0-0-0-0-000-0-0-0-0---0-12/1--|
pm  . . . . ... . . . .

 solo
c#---------------------------------|
g#---------------------------------|
e -12-11-8-7-8-7h8p7-5-5-7-7-7-----|
b ---------------------------------|
f#---------------------------------|
b ---------------------------------|

c#------------------------------------------------------------|
g#------------------------------------------------------------|
e -12-11-8-7-8-7h8p7-8/10-8h10p8-10/14------------------------|
b ------------------------------------------------------------|
f#------------------------------------------------------------|
b ------------------------------------------------------------|

c#------------------------------------------------------|
g#--------------------------------16h17p16----16--------|
e --------------------14----14-17----------17----17-16--|
b --------14-------16----16-----------------------------|
f#--12-15----12-15--------------------------------------|
b ------------------------------------------------------|

c#-----------------------------------------------------|
g#--------------------------------19h20p19----19-------|
e --------------------------17-20----------20----20-19-|
b --------16-------16-19-16----------------------------|
f#--14-18----14-18-------------------------------------|
b -----------------------------------------------------|

c#--19-17-16-17-16h17p16---16---------------16---------------------|
g#-----------------------18--18-17-15-17-18----18-17-18--18-17-17--|
e -----------------------------------------------------------------|
b -----------------------------------------------------------------|
f#-----------------------------------------------------------------|
b -----------------------------------------------------------------|

c#----------------|
g#----------------|
e ---9*-----------|
b ----------------| a pig squeel if u dont know what a
f#----------------| pig squeel is go to you tube and learn it and found out
b ----------------|

outro
c#---------------------------------|
g#---------------------------------|
e -3----3--------------------------|
b -2----2--------------------------|
f#-1----1--------------------------|
b --0000---------------------------|
find out how the outro goes
Добавлено: 20.09.2013
Другие материалы по этой песне:
  • Аккорды и текст

Страница создана 20.09.2013
http://primanota.ru/through-the-eyes-of-the-dead/failure-in-the-flesh-chords.htm
Привет, Гость.
Предлагаем пройти революционный курс по гитаре.
Подарок от PrimaNota.Ru, забирай!