PrimaNota.ru - самый крупный в мире бесплатный архив песенных текстов, аккордов, табулатур и нот


Through The Eyes Of The Dead - Bringer Of Truth - текст песни, таба, видео

Регистрация Запомнить меня
Войти через:  Facebook Google Twitter Vk Yandex Mail.ru

Through The Eyes Of The Dead - Bringer Of Truth - текст песни, таба, видео

Печатать
Просмотров: 84
Band – Through the Eyes of the Dead
Album – Bloodlust
Song – Bringer of Truth
Transcribed by – Bryan H. & Ty B. (LohnJongSilvers@aim.com or OTTERS592@aol.com)


Gtr I (B F# B E G# C#) - 'Guitar I'
Gtr II (B F# B E F# B) - 'Guitar II'

Tuning – Open Bsus4

 2/4         4/4
  Gtrs I, II
      PM|
|---------||----------------------------------|
|---------||o---------------------------------|
|---------||----------------------------------|
|---------||----------------------------------|
|-8-7-1-1-||o-----7---8-------4---7-------5---|
|-8-7-1-1-||--0-0---0---0-0-0---0---0-0-0---0-|


|----------------------------------|
|----------------------------------|
|----------------------------------|
|----------------------------------|
|-----7---8-------4---7-------5----|
|-0-0---0---0-0-0---0---0-0-0---0--|


  1.
  Gtr I
|--------------------------------------------------||
|-------------------------------------------------o||
|--------------------------------------------------||
|-------------------------------7-7-7-5-5-5--------||
|-5-5-5-8-8-8-7-7-7-8-8-8-4-4-4-------------8-8-8-o||
|--------------------------------------------------||
|
| Gtr II
|--------------------------------------------------||
|-------------------------------------------------o||
|--------------------------------------------------||
|--------------------------------------------------||
|-------5-5-5-4-4-4-5-5-5-------8-8-8-7-7-7-5-5-5-o||
|-8-8-8-------------------7-7-7--------------------||


  2.
                              PM|
|---------------------------------|
|---------------------------------|
|---------------------------------|
|---------------------------------|
|-5-5-5-8-8-8-7-7-7-8-8-8-8-7-1-1-|
|-------------------------8-7-1-1-|
|
|                             PM|
|---------------------------------|
|---------------------------------|
|---------------------------------|
|---------------------------------|
|-------5-5-5-4-4-4-5-5-5-8-7-1-1-|
|-8-8-8-------------------8-7-1-1-|


    Gtrs I, II
||----------------------------------|----------------------------------|
||o---------------------------------|----------------------------------|
||----------------------------------|----------------------------------|
||----------------------------------|----------------------------------|
||o-----7---8-------4---7-------5---|-----7---8-------4---7-------5----|
||--0-0---0---0-0-0---0---0-0-0---0-|-0-0---0---0-0-0---0---0-0-0---0--|


  1.
  Gtr I
|--------------------------------------------------||
|-------------------------------------------------o||
|--------------------------------------------------||
|-------------------------------7-7-7-5-5-5--------||
|-5-5-5-8-8-8-7-7-7-8-8-8-4-4-4-------------8-8-8-o||
|--------------------------------------------------||
|
| Gtr II
|--------------------------------------------------||
|-------------------------------------------------o||
|--------------------------------------------------||
|--------------------------------------------------||
|-------5-5-5-4-4-4-5-5-5-------8-8-8-7-7-7-5-5-5-o||
|-8-8-8-------------------7-7-7--------------------||


  2.
                              PM|
|---------------------------------|
|---------------------------------|
|---------------------------------|
|---------------------------------|
|-5-5-5-8-8-8-7-7-7-8-8-8-8-7-1-1-|
|-------------------------8-7-1-1-|
|
|                             PM|
|---------------------------------|
|---------------------------------|
|---------------------------------|
|---------------------------------|
|-------5-5-5-4-4-4-5-5-5-8-7-1-1-|
|-8-8-8-------------------8-7-1-1-|


||----------------------------|
||o---------------------------|
||----------------------------|
||----------------------------|
||o-0-0--0-0-0-0-0-0--0-0-0-0-|
||--0-0--0-0-0-0-0-0--0-0-0-0-|
|
||----------------------------|
||o---------------------------|
||----------------------------|
||----------------------------|
||o-0-0--0-0-0-0-0-0--0-0-0-0-|
||--0-0--0-0-0-0-0-0--0-0-0-0-|


|-------------------------------------------------|---------------------------|
|-------------------------------------------------|---------------------------|
|-------------------------------------------------|---------------------------|
|-7-7-7-7-7-7-7-7-7-5-5-5-2-2-2-2-2-2-5-5-5-5-5-5-|---------------------------|
|-------------------------------------------------|-0-0--0-0-0-0-0-0--0-0-0-0-|
|-------------------------------------------------|-0-0--0-0-0-0-0-0--0-0-0-0-|
|
|-------------------------------------------------|---------------------------|
|-------------------------------------------------|---------------------------|
|-------------------------------------------------|---------------------------|
|-------------------------------------------------|---------------------------|
|-8-8-8-8-8-8-8-8-8-7-7-7-4-4-4-4-4-4-7-7-7-7-7-7-|-0-0--0-0-0-0-0-0--0-0-0-0-|
|-------------------------------------------------|-0-0--0-0-0-0-0-0--0-0-0-0-|


|------------------------------------------------------||-------------------------|
|-----------------------------------------------------o||-------------------------|
|------------------------------------------------------||-------------------------|
|------------------------------------------------------||0------------------------|
|4-4-4-4-4-4-4-4-4-8-8-8--7--7--7--7--7--7-5-5-5-5-5-5o||0------------------------|
|------------------------------------------------------||0------------------------|
|
|-----------------------------------------------------||--------------------------------|
|----------------------------------------------------o||--------------------------------|
|-----------------------------------------------------||--------------------------------|
|-----------------------------------------------------||--------------------------------|
|------------------5-5-5-----------------------------o||----7---8-------4---7-------5--|
|-7-7-7-7-7-7-7-7-7-----11-11-11-11-11-11-8-8-8-8-8-8-||-0-0---0--0-0-0---0---0-0-0---0-|


|---------------------------|--------------------------------------------------------|
|---------------------------|--------------------------------------------------------|
|---------------------------|--------------------------------------------------------|
|-0-------------------------|--------------------------------------------------------|
|-0-------------------------|-8---8---------------------7---7------------------------|
|-0-------------------------|-8---8---------------------7---7------------------------|
|
|---------------------------------|------------------------------------------------------|
|---------------------------------|------------------------------------------------------|
|---------------------------------|------------------------------------------------------|
|---------------------------------|------------------------------------------------------|
|-----7---8-------4---7-------5---|---------5-5-5-4-4-4-5-5-5---------8-8-8-7-7-7-5-5-5-|
|-0-0---0---0-0-0---0---0-0-0---0-|-8-8---8-------------------7-7---7--------------------|


|-||----------------------------------|---------------------------------|
|-||o---------------------------------|---------------------------------|
|-||----------------------------------|---------------------------------|
|-||----------------------------------|---------------------------------|
|-||o-----7---8-------4---7-------5---|-----7---8-------4---7-------5---|
|-||--0-0---0---0-0-0---0---0-0-0---0-|-0-0---0---0-0-0---0---0-0-0---0-|
|
|-||----------------------------------|---------------------------------|
|-||o---------------------------------|---------------------------------|
|-||----------------------------------|---------------------------------|
|-||----------------------------------|---------------------------------|
|-||o-----7---8-------4---7-------5---|-----7---8-------4---7-------5---|
|-||--0-0---0---0-0-0---0---0-0-0---0-|-0-0---0---0-0-0---0---0-0-0---0-|


  1.                                                  2.
                                                                                  PM|
|--------------------------------------------------||-----------------------------------|
|-------------------------------------------------o||-----------------------------------|
|--------------------------------------------------||-----------------------------------|
|-------------------------------7-7-7-5-5-5--------||-----------------------------------|
|-5-5-5-8-8-8-7-7-7-8-8-8-4-4-4-------------8-8-8-o||-5-5-5-8-8-8-7-7-7-8-8-8-8-7-1-1--|
|--------------------------------------------------||-------------------------8-7-1-1---|
|
|                                                                                 PM|
|--------------------------------------------------||-----------------------------------|
|-------------------------------------------------o||-----------------------------------|
|--------------------------------------------------||-----------------------------------|
|--------------------------------------------------||-----------------------------------|
|-------5-5-5-4-4-4-5-5-5-------8-8-8-7-7-7-5-5-5-o||-------5-5-5-4-4-4-5-5-5-8-7-1-1--|
|-8-8-8-------------------7-7-7--------------------||-8-8-8-------------------8-7-1-1---|


|-||----------------------------------|---------------------------------|
|-||o---------------------------------|---------------------------------|
|-||----------------------------------|---------------------------------|
|-||----------------------------------|---------------------------------|
|-||o-----7---8-------4---7-------5---|-----7---8-------4---7-------5---|
|-||--0-0---0---0-0-0---0---0-0-0---0-|-0-0---0---0-0-0---0---0-0-0---0-|
|
|-||----------------------------------|---------------------------------|
|-||o---------------------------------|---------------------------------|
|-||----------------------------------|---------------------------------|
|-||----------------------------------|---------------------------------|
|-||o-----7---8-------4---7-------5---|-----7---8-------4---7-------5---|
|-||--0-0---0---0-0-0---0---0-0-0---0-|-0-0---0---0-0-0---0---0-0-0---0-|


  1.                                                  2.
                                                                                  PM|
|--------------------------------------------------||-----------------------------------|
|-------------------------------------------------o||-----------------------------------|
|--------------------------------------------------||-----------------------------------|
|-------------------------------7-7-7-5-5-5--------||-----------------------------------|
|-5-5-5-8-8-8-7-7-7-8-8-8-4-4-4-------------8-8-8-o||-5-5-5-8-8-8-7-7-7-8-8-8-8-7-1-1--|
|--------------------------------------------------||-------------------------8-7-1-1---|
|
|                                                                                 PM|
|--------------------------------------------------||---------------------------------|
|-------------------------------------------------o||---------------------------------|
|--------------------------------------------------||---------------------------------|
|--------------------------------------------------||---------------------------------|
|-------5-5-5-4-4-4-5-5-5-------8-8-8-7-7-7-5-5-5-o||------5-5-5-4-4-4-5-5-5-8-7-1-1--|
|-8-8-8-------------------7-7-7--------------------||-8-8-8------------------8-7-1-1--|


||----------------------------|
||o---------------------------|
||----------------------------|
||----------------------------|
||o-0-0--0-0-0-0-0-0--0-0-0-0-|
||--0-0--0-0-0-0-0-0--0-0-0-0-|
|
||----------------------------|
||o---------------------------|
||----------------------------|
||----------------------------|
||o-0-0--0-0-0-0-0-0--0-0-0-0-|
||--0-0--0-0-0-0-0-0--0-0-0-0-|


|-------------------------------------------------|---------------------------|
|-------------------------------------------------|---------------------------|
|-------------------------------------------------|---------------------------|
|-7-7-7-7-7-7-7-7-7-5-5-5-2-2-2-2-2-2-5-5-5-5-5-5-|---------------------------|
|-------------------------------------------------|-0-0--0-0-0-0-0-0--0-0-0-0-|
|-------------------------------------------------|-0-0--0-0-0-0-0-0--0-0-0-0-|
|
|-------------------------------------------------|---------------------------|
|-------------------------------------------------|---------------------------|
|-------------------------------------------------|---------------------------|
|-------------------------------------------------|---------------------------|
|-8-8-8-8-8-8-8-8-8-7-7-7-4-4-4-4-4-4-7-7-7-7-7-7-|-0-0--0-0-0-0-0-0--0-0-0-0-|
|-------------------------------------------------|-0-0--0-0-0-0-0-0--0-0-0-0-|


|--------------------------------------------------------||
|-------------------------------------------------------o||
|--------------------------------------------------------||
|--------------------------------------------------------||
|-4-4-4-4-4-4-4-4-4-8-8-8--7--7--7--7--7--7-5-5-5-5-5-5-o||
|--------------------------------------------------------||
|
|--------------------------------------------------------||
|-------------------------------------------------------o||
|--------------------------------------------------------||
|--------------------------------------------------------||
|-------------------5-5-5-------------------------------o||
|-7-7-7-7-7-7-7-7-7-------11-11-11-11-11-11-8-8-8-8-8-8--||


|-||--------------------------------------------------|
|-||o-------------------------------------------------|
|-||--------------------------------------------------|
|-||--------------------------------------------------|
|-||o-------------------7-7-7-8-8-8-8-8-8-------------|
|-||--0-0-0-0-0-0-0-0-0-------------------7-7-7-7-7-7-|
|
|-||--------------------------------------------------|
|-||o-------------------------------------------------|
|-||--------------------------------------------------|
|-||--------------------------------------------------|
|-||o-------------------7-7-7-8-8-8-8-8-8-------------|
|-||--0-0-0-0-0-0-0-0-0-------------------7-7-7-7-7-7-|


  Gtrs I, II
|-------------------------------------------------|
|-------------------------------------------------|
|-------------------------------------------------|
|-------------------------------7-7-7-------------|
|-------------------7-7-7-8-8-8-------8-8-8-8-8-8-|
|-0-0-0-0-0-0-0-0-0-------------------------------|

|------------------------------------------------|
|------------------------------------------------|
|------------------------------------------------|
|------------------------------------------------|
|-------------------7-7-7-8-8-8-8-8-8------------|
|0-0-0-0-0-0-0-0-0-------------------7-7-7-7-7-7-|


|-----------------------------------------------------||
|----------------------------------------------------o||
|-----------------------------------------------------||
|-----------------------------------------------------||
|-------8-8-8-7-7-7-------7-7-7-8-8-8-------7-7-7----o||
|-8-8-8-------------7-7-7-------------5-5-5-----------||


||--------------------------------------------------|
||o-------------------------------------------------|
||--------------------------------------------------|
||--0-----------------------------------------------|
||o-0-----------------------------------------------|
||--0-----------------------------------------------|
|
||--------------------------------------------------|
||o-------------------------------------------------|
||--------------------------------------------------|
||--------------------------------------------------|
||o-------------------7-7-7-8-8-8-8-8-8-------------|
||--0-0-0-0-0-0-0-0-0-------------------7-7-7-7-7-7-|


|--------------------------------------------------|
|--------------------------------------------------|
|--------------------------------------------------|
|-7------------------------------------------------|
|-7------------------------------------------------|
|-7------------------------------------------------|
|
|--------------------------------------------------|
|--------------------------------------------------|
|--------------------------------------------------|
|-------------------------------7-7-7--------------|
|-------------------7-7-7-8-8-8-------8-8-8-8-8-8--|
|-0-0-0-0-0-0-0-0-0--------------------------------|


|-------------------------------------------------|
|-------------------------------------------------|
|-------------------------------------------------|
|-3-----------------------------------------------|
|-3-----------------------------------------------|
|-3-----------------------------------------------|
|
|-------------------------------------------------|
|-------------------------------------------------|
|-------------------------------------------------|
|-------------------------------------------------|
|-------------------7-7-7-8-8-8-8-8-8-------------|
|-0-0-0-0-0-0-0-0-0-------------------7-7-7-7-7-7-|


|---------------------------------------------------||
|--------------------------------------------------o||
|---------------------------------------------------||
|-8-----------------------7-----------5-------------||
|-8-----------------------7-----------5------------o||
|-8-----------------------7-----------5-------------||
|
|---------------------------------------------------||
|--------------------------------------------------o||
|---------------------------------------------------||
|---------------------------------------------------||
|-------8-8-8-7-7-7-------7-7-7-8-8-8-------7-7-7--o||
|-8-8-8-------------7-7-7-------------5-5-5---------||


||--------------------------------------|--------------------------------|
||o-------------------------------------|--------------------------------|
||--------------------------------------|--------------------------------|
||--------------------------------------|--------------------------------|
||o-8-----------------7-----------------|-8-----------------8-5---8-7-5-4|
||----7-0-0-0-0-0-0-0---7-0-0-0-0-0-0-0-|---7-0-0-0-0-0-0-0-----8--------|
|
||--------------------------------------|--------------------------------|
||o-------------------------------------|--------------------------------|
||--------------------------------------|--------------------------------|
||--------------------------------------|--------------------------------|
||o-8-----------------7-----------------|-8-----------------8-5---8-7-5-4|
||----7-----------------7---------------|---7-------------------8--------|


|-------------------------------------|-----------------------------------||
|-------------------------------------|----------------------------------o||
|-------------------------------------|-----------------------------------||
|-------------------------------------|-----------------------------------||
|-8-----------------7-----------------|-8-----------------8-5---8-10-8-7-o||
|---7-0-0-0-0-0-0-0---7-0-0-0-0-0-0-0-|---7-0-0-0-0-0-0-0-----7-----------||
|
|-------------------------------------|-----------------------------------||
|-------------------------------------|----------------------------------o||
|-------------------------------------|-----------------------------------||
|-------------------------------------|-----------------------------------||
|-8-----------------7-----------------|-8-----------------8-5---8-10-8-7-o||
|---7-----------------7---------------|---7-------------------7-----------||


||---------------------------|-----------------------------|
||o--------------------------|-----------------------------|
||---------------------------|-----------------------------|
||--0-0---------0-0----------|-0-0-------------------------|
||o-0-0---------0-0----------|-0-0---------8-----8-----7---|
||--0-0---------0-0----------|-0-0-----------0-0---0-0---0-|
|
||---------------------------|-----------------------------|
||o--------------------------|-----------------------------|
||---------------------------|-----------------------------|
||---------------------------|-----------------------------|
||o-0-0-5-8-5-7-0-0-7-10-7-8-|-0-0-5-8-5-7-8-----8-----7---|
||--0-0---------0-0----------|-0-0-----------0-0---0-0---0-|


|--------------------------|-------------------------------------||
|--------------------------|------------------------------------o||
|--------------------------|-------------------------------------||
|-0-0---------0-0----------|-0-0---------------------------------||
|-0-0---------0-0----------|-0-0-----------10-5-5-10-5-5-8-5----o||
|-0-0---------0-0----------|-0-0---------------------------------||
|
|--------------------------|-------------------------------------||
|--------------------------|------------------------------------o||
|--------------------------|-------------------------------------||
|--------------------------|-------------------------------------||
|-0-0-5-8-5-7-0-0-7-10-7-8-|-0-0-8-12-8-10-10-5-5-10-5-5-8-5----o||
|-0-0---------0-0----------|-0-0---------------------------------||


|-------------------------------|-------------------------------|
|-------------------------------|-------------------------------|
|-------------------------------|-------------------------------|
|-------------------------------|-------------------------------|
|-0-0-8-12-8-10-0-0-10-13-10-12-|-0-0-8-12-8-10-8-----8-----7---|
|-0-0-----------0-0-------------|-0-0-------------0-0---0-0---0-|
|
|-------------------------------|-------------------------------|
|-------------------------------|-------------------------------|
|-------------------------------|-------------------------------|
|-------------------------------|-------------------------------|
|-0-0-5--8-5--7-0-0--7-10--7--8-|-0-0-5--8-5--7-8-----8-----7---|
|-0-0-----------0-0-------------|-0-0-------------0-0---0-0---0-|


|-------------------------------|--------------------------------------|
|-------------------------------|--------------------------------------|
|-------------------------------|--------------------------------------|
|-------------------------------|--------------------------------------|
|-0-0-8-12-8-10-0-0-10-13-10-12-|-0-0-12-15-12-13-10-5-5-10-5-5-8-5----|
|-0-0-----------0-0-------------|-0-0----------------------------------|
|
|-------------------------------|--------------------------------------|
|-------------------------------|--------------------------------------|
|-------------------------------|--------------------------------------|
|-------------------------------|--------------------------------------|
|-0-0-5--8-5--7-0-0--7-10--7--8-|-0-0--8-12--8-10-10-5-5-10-5-5-8-5----|
|-0-0-----------0-0-------------|-0-0----------------------------------|


    Gtrs I, II
||--------------------------------------------------|
||o-------------------------------------------------|
||--------------------------------------------------|
||--------------------------------------------------|
||o-------------------7-7-7-8-8-8-8-8-8-------------|
||--0-0-0-0-0-0-0-0-0-------------------7-7-7-7-7-7-|


|--------------------------------------------------|
|--------------------------------------------------|
|--------------------------------------------------|
|-------------------------------7-7-7--------------|
|-------------------7-7-7-8-8-8-------8-8-8-8-8-8--|
|-0-0-0-0-0-0-0-0-0--------------------------------|


|-------------------------------------------------|
|-------------------------------------------------|
|-------------------------------------------------|
|-------------------------------------------------|
|-------------------7-7-7-8-8-8-8-8-8-------------|
|-0-0-0-0-0-0-0-0-0-------------------7-7-7-7-7-7-|


|---------------------------------------------------||
|--------------------------------------------------o||
|---------------------------------------------------||
|---------------------------------------------------||
|-------8-8-8-7-7-7-------7-7-7-8-8-8-------7-7-7--o||
|-8-8-8-------------7-7-7-------------5-5-5---------||


|---------------------------------|-------------------------------|
|---------------------------------|-------------------------------|
|---------------------------------|-------------------------------|
|-0-------------------------------|-7-----------------------------|
|-0-------------------------------|-7-----------------------------|
|-0-------------------------------|-7-----------------------------|
|
|---------------------------------|-------------------------------|
|-8-0-0-7-0-0-3-0-0-5-0-0-3-0-1-0-|-0-0-8-0-0-7-0-0-5-0-0-3-0-1-0-|
|---------------------------------|-------------------------------|
|---------------------------------|-------------------------------|
|---------------------------------|-------------------------------|
|---------------------------------|-------------------------------|


|----------------------------------|
|----------------------------------|
|----------------------------------|
|-5--------------------------------|
|-5--------------------------------|
|-5--------------------------------|
|
|-7-0-0-5-0-0-3-0-0-2-0-0-3-0-2-0--|
|----------------------------------|
|----------------------------------|
|----------------------------------|
|----------------------------------|
|----------------------------------|


|------------------|----------------------------------------------------|
|------------------|----------------------------------------------------|
|------------------|----------------------------------------------------|
|-8----------7--5--|--0-------------------------------------------------|
|-8----------7--5--|--0-------------------------------------------------|
|-8----------7--5--|--0-------------------------------------------------|
|
|-8---8-10-8-7--5--|----14-15----14-15----14-15----14-15-17-15-14-15-14-|
|------------------|-13-------13-------13-------13----------------------|
|------------------|----------------------------------------------------|
|------------------|----------------------------------------------------|
|------------------|----------------------------------------------------|
|------------------|----------------------------------------------------|


|------------------------------------------------------|
|------------------------------------------------------|
|------------------------------------------------------|
|--7---------------------------------------------------|
|--7---------------------------------------------------|
|--7---------------------------------------------------|
|
|----12-14----12-14----12-14----12-14-19-19-20-17-19\--|
|-12-------12-------12-------12------------------------|
|------------------------------------------------------|
|------------------------------------------------------|
|------------------------------------------------------|
|------------------------------------------------------|


|----------------------------------------------------|
|----------------------------------------------------|
|----------------------------------------------------|
|--5-------------------------------------------------|
|--5-------------------------------------------------|
|--5-------------------------------------------------|
|
|----14-15----14-15----14-15----14-15-17-15-14-15-14-|
|-13-------13-------13-------13----------------------|
|----------------------------------------------------|
|----------------------------------------------------|
|----------------------------------------------------|
|----------------------------------------------------|


|----------------------------------------------|
|----------------------------------------------|
|----------------------------------------------|
|--8--------------------------7-----------5----|
|--8--------------------------7-----------5----|
|--8--------------------------7-----------5----|
|
|-15-17-19-20-17-19-15-17-15-14-12-14-15-14----|
|----------------------------------------------|
|----------------------------------------------|
|----------------------------------------------|
|----------------------------------------------|
|----------------------------------------------|


|-------------------------------------------------|
|-------------------------------------------------|
|-------------------------------------------------|
|-------------------------------------------------|
|-5-5-5-------------------------------------------|
|-------8-8-8-5-5-5-7-7-7-7-7-7-8-8-8-5-5-5-7-7-7-|
|
|-------------------------------------------------|
|-------------------------------------------------|
|-------------------------------------------------|
|-0-----------------------------------------------|
|-0-----------------------------------------------|
|-0-----------------------------------------------|


|----------------------------------------------------|
|----------------------------------------------------|
|----------------------------------------------------|
|----------------------------------------------------|
|----------------------------------------------------|
|--7--7-7-8-8-8-5-5-5-7-7-7-4-4-4-8-8-8-5-5-5-7-7-7--|
|
|----------------------------------------------------|
|----------------------------------------------------|
|----------------------------------------------------|
|-(0)------------------------------------------------|
|-(0)------------------------------------------------|
|-(0)------------------------------------------------|


|-------------------------------------------------|
|-------------------------------------------------|
|-------------------------------------------------|
|-------------------------------------------------|
|-5-5-5-------------------------------------------|
|-------8-8-8-5-5-5-7-7-7-7-7-7-8-8-8-5-5-5-7-7-7-|
|
|-------------------------------------------------|
|-------------------------------------------------|
|-------------------------------------------------|
|-0-----------------------------------------------|
|-0-----------------------------------------------|
|-0-----------------------------------------------|


|----------------------------------------------------|
|----------------------------------------------------|
|----------------------------------------------------|
|----------------------------------------------------|
|----------------------------------------------------|
|--7--7-7-8-8-8-5-5-5-7-7-7-4-4-4-8-8-8-5-5-5-7-7-7--|
|
|                                       PM------|
|----------------------------------------------------|
|----------------------------------------------------|
|----------------------------------------------------|
|-(0)------------------------------------------------|
|-(0)-----------------------------------0---0---0----|
|-(0)-----------------------------------0---0---0----|


||--------------------------------------------------|
||o-------------------------------------------------|
||--------------------------------------------------|
||--------------------------------------------------|
||o-5-5-5-------------------------------------------|
||--------8-8-8-5-5-5-7-7-7-7-7-7-8-8-8-5-5-5-7-7-7-|
|
||--------------------------------------------------|
||o-------------------------------------------------|
||--------------------------------------------------|
||--0-0-0-0-0-0---0-0-0---0-0-0-0-0-0---0-0-0-------|
||o-0-0-0-0-0-0-0-0-0-0-0-0-0-0-0-0-0-0-0-0-0-0-----|
||--0-0-0-0-0-0-0-0-0-0-0-0-0-0-0-0-0-0-0-0-0-0-----|


                                                    4x
|---------------------------------------------------||
|--------------------------------------------------o||
|---------------------------------------------------||
|---------------------------------------------------||
|--------------------------------------------------o||
|-7-7-7-8-8-8-5-5-5-7-7-7-4-4-4-8-8-8-5-5-5-7-7-7---||
|
|                                                   4x
|---------------------------------------------------||
|--------------------------------------------------o||
|---------------------------------------------------||
|-0-0-0-0-0-0---0-0-0-0-0-0-0-0-0-0-0-0---0-0-0-----||
|-0-0-0-0-0-0-0-0-0-0-0-0-0-0-0-0-0-0-0-0-0-0-0----o||
|-0-0-0-0-0-0-0-0-0-0-0-0-0-0-0-0-0-0-0-0-0-0-0-----||


 2/4
|------|-----------------------|-----------------------|
|------|-----------------------|-----------------------|
|------|-----------------------|-----------------------|
|------|-0-0-0-0-0-0---0-0-0---|-0-0-0-0-0-0---0-0-0---|
|-0----|-0-0-0-0-0-0-0-0-0-0-0-|-0-0-0-0-0-0-0-0-0-0-0-|
|-0----|-0-0-0-0-0-0-0-0-0-0-0-|-0-0-0-0-0-0-0-0-0-0-0-|


|-----------------------|------------------------|
|-----------------------|------------------------|
|-----------------------|------------------------|
|-0-0-0-0-0-0---0-0-0---|-0-0-0-0-0-0---0-0-0----|
|-0-0-0-0-0-0-0-0-0-0-0-|-0-0-0-0-0-0-0-0-0-0-0--|
|-0-0-0-0-0-0-0-0-0-0-0-|-0-0-0-0-0-0-0-0-0-0-0--|


Tablature Legend
----------------
 h   - hammer-on
 p   - pull-off
 b   - bend
 pb  - pre-bend
 r   - bend release (if no number after the r, then release immediately)
 /\  - slide into or out of (from/to "nowhere")
 s   - legato slide
 S   - shift slide
  - natural harmonic
[n]  - artificial harmonic
n(n) - tapped harmonic
 ~   - vibrato
 tr  - trill
 T   - tap
 TP  - trem. picking
 PM  - palm muting
\n/  - tremolo bar dip; n = amount to dip
 \n  - tremolo bar down
 n/  - tremolo bar up
/n\  - tremolo bar inverted dip
 =   - hold bend; also acts as connecting device for hammers/pulls
 <>  - volume swell (louder/softer)
 x   - on rhythm slash represents muted slash
 o   - on rhythm slash represents single note slash

Misc Legend
-----------
 |  - bar
||  - double bar
||o - repeat start
o|| - repeat end
*|  - double bar (ending)
 :  - bar (freetime)
 $  - Segno
 &  - Coda
Tempo markers -  = BPM(8/16=s8/s16), where s8 = swing 8ths, s16 = swing 16ths
Добавлено: 10.08.2013
Другие материалы по этой песне:
  • Аккорды и текст

Страница создана 18.04.2012
http://primanota.ru/through-the-eyes-of-the-dead/bringer-of-truth-chords.htm
Привет, Гость.
Предлагаем пройти революционный курс по гитаре.
Подарок от PrimaNota.Ru, забирай!