PrimaNota.ru - самый крупный в мире бесплатный архив песенных текстов, аккордов, табулатур и нот


Through The Eyes Of The Dead - Between The Gardens That Bathe In Blood - текст песни, таба, видео

Регистрация Запомнить меня
Войти через:  Facebook Google Twitter Vk Yandex Mail.ru

Through The Eyes Of The Dead - Between The Gardens That Bathe In Blood - текст песни, таба, видео

Печатать
Просмотров: 68
  Band–Through the Eyes of the Dead
 Album–The Scars of Ages
  Song–Between the Gardens that Bathe in Blood
Tabbed-by–Bryan H.


TUNE |C|F|Bb|Eb|G|C|


Guitar 1
||--------------------------------------------------------|
||o-------------------------------------------------------|
||--------------------------------------------------------|
||-9-------7--9--------------7------7h9p7-10------9----10-|
||o------------10------9--10------------------------------|
||--------------------------------------------------------|

Guitar 2
||--------------------------------------------------------|
||o-------------------------------------------------------|
||--------------------------------------------------------|
||--------------------------------------------------------|
||o7------10—9--------------------------------------------|
||-------------5-------5--7--8------7--8--10--------------|




Guitar 1
|-------------------------- ------------------------------||
|--------------------------------------------------------o||
|---------------------------------------------------------||
|-9-------7--9-------------10-----9h10p9--7------9---10---||
|-------------10------9—10-------------------------------o||
|-------------------------- ------------------------------||

Guitar 2
|---------------------------------------------------------||
|--------------------------------------------------------o||
|---------------------------------------------------------||
|---------------------------------------------------------||
|-7------10—9--------------------------------------------o||
|--------------5-------5--7--8------7--8--10--------------||




Guitar 1 & 2
||------------------------------------|
||o-----------------------------------|
||------------------------------------|
||------------------------------------|
||o-7-7-7-9-7-7-10-7-------9-----10-7-|
||-------------------7-7-7---7-7------|


|------------------------------------|
|------------------------------------|
|------------------------------------|
|------------------9-----------------|
|-------9-----10---------10-----9----|
|-8-8-8---8-8----8---8-8----8-8------|


|------------------------------------|
|------------------------------------|
|------------------------------------|
|------------------------------------|
|--7-7-7-9-7-7-10-7-------9-----10-7-|
|-------------------7-7-7---7-7------|


|------------------------------------||
|-----------------------------------o||
|------------------------------------||
|------------------9-7---12----------||
|-------9-----10-------10--10-9-7-9-o||
|-8-8-8---8-8----8-------------------||




Guitar 1
||----------------------------------------------------|
||o---------------------------------------------------|
||----------------------------------------------------|
||----------------------------------------------------|
||o------10-10-10-9-9-9-7-7-7-------9-9-9-6-6-6-7-7-7-|
||-8-8-8----------------------7-7-7-------------------|

Guitar 2
||----------------------------------------------------|
||o---------------------------------------------------|
||----------------------------------------------------|
||-------9-9-9-7-7-7-5-5-5-------7-7-7-4-4-4-5-5-5----|
||o7-7-7-------------------5-5-5----------------------|
||----------------------------------------------------|



Guitar 1 & 2
|-----------------------------------------|
|-----------------------------------------|
|-----------------------------------------|
|-----------------------------------------|
|-2-2-2---2-2-2---2-2-2-------------------|
|-0-0-0---0-0-0---0-0-0-------------------|


|-----------------------------------------||
|----------------------------------------o||
|-----------------------------------------||
|-----------------------------------------||
|-2-2-2---2-2-2---2-2-2------------------o||
|-0-0-0---0-0-0---0-0-0-------------------||

Guitar 1
|----------------------------------------------------|
|----------------------------------------------------|
|----------------------------------------------------|
|----------------------------------------------------|
|-------10-10-10-9-9-9-7-7-7-------9-9-9-6-6-6-7-7-7-|
|-8-8-8----------------------7-7-7-------------------|

Guitar 2
|----------------------------------------------------|
|----------------------------------------------------|
|----------------------------------------------------|
|-------9-9-9-7-7-7-5-5-5-------7-7-7-4-4-4-5-5-5----|
|-7-7-7-------------------5-5-5----------------------|
|----------------------------------------------------|


Guitar 1
||-------------------------------------------------------|
||o------------------------------------------------------|
||-------------------------------------------------------|
||-------------------------------------------------------|
||o2-2-2---2----2----2-2-2----2----2-----2-2-2----2-2-2--|
||-0-0-0---0----0----0-0-0----0----0-----0-0-0----0-0-0--|

Guitar 2
||-------------------------------------------------------|
||o------------------------------------------------------|
||-------------------------------------------------------|
||-------------------10-10-10-9-9-9-9-9-9-9-9-9----------|
||o7-7-7-7-7-7-7-7-7----------------------------10-10-10-|
||-------------------------------------------------------|




Guitar 1
|-------------------------------------------------------||
|------------------------------------------------------o||
|-------------------------------------------------------||
|-------------------------------------------------------||
|-2-2-2---2----2----2-2-2----2----2-----2-2-2----2-2-2-o||
|-0-0-0---0----0----0-0-0----0----0-----0-0-0----0-0-0--||

Guitar 2
|------------------------------------------------------||
|-----------------------------------------------------o||
|------------------------------------------------------||
|------------------------------------------------------||
|-12-12-12-12-12-12-10-10-10-9-9-9-9-9-9-9-9-10-9-9-9-o||
|------------------------------------------------------||



Guitar 1
|-----------------------------------------------------|
|-----------------------------------------------------|
|-----------------------------------------------------|
|-----------------------------------------------------|
|---------------------3-3-3-2-2-2-2-2-2-2-2-2---------|
|---0-0-0-0-0-0-0-0-0-------------------------3-3-3---|

Guitar 2
||-------------------------------------------------------|
||o------------------------------------------------------|
||-------------------------------------------------------|
||-------------------10-10-10-9-9-9-9-9-9-9-9-9----------|
||o7-7-7-7-7-7-7-7-7----------------------------10-10-10-|
||-------------------------------------------------------|




Guitar 1
|-----------------------------------------------------||
|----------------------------------------------------o||
|-----------------------------------------------------||
|-----------------------------------------------------||
|----------------------------------------------------o||
|---5-5-5-5-5-5-5-5-5-3-3-3-2-2-2-2-2-2-2-2-3-3-2-2---||
                            |skip on second repeat
Guitar 2
|------------------------------------------------------||
|-----------------------------------------------------o||
|------------------------------------------------------||
|------------------------------------------------------||
|-12-12-12-12-12-12-10-10-10-9-9-9-9-9-9-9-9-10-9-9-9-o||
|------------------------------------------------------||
                             |skip on second repeat                           



Guitar 1
|-------------------------|
|-------------------------|
|-------------------------|
|-------------------------|
|-------------3-3-2-------|
|-2-2-2-2-2-2-------3-3-3-|

Guitar 2
|-----------------------------|
|-----------------------------|
|-----------------------------|
|-----------------------------|
|-------------10-9-9----------|
|-9-9-9-9-9-9--------10-10-10-|





Guitar 1 & 2
|-----------------|
|-----------------|
|-5------4--------|
|-5------4---5----|
|-3------2---5----|
|------------3----|




Guitar 1
|-------------------------------------|
|-------------------------------------|
|-------------------------------------|
|-7-----------------3-----------------|
|-7-----------------3-----------------|
|-5-----------------1-----------------|

Guitar 2
|-------------------------------------|
|-------------------------------------|
|-------------------------------------|
|-7-9 10 7-9-10-7-9---9-10---9-10---9-|
|-------------------8------8------8---|
|-------------------------------------|



Guitar 1
|--------------------------------------------|
|--------------------------------------------|
|--------------------------------------------|
|-5--------------------7---------------------|
|-5--------------------7---------------------|
|-3--------------------5---------------------|

Guitar 2
|--------------------------------------------|
|--------------------------------------------|
|------------------------------10-9----------|
|----9-10----9-10----9-12-10-9-----10-9h10p9-|
|-10------10------10-------------------------|
|--------------------------------------------|


Guitar 1
|-------------------------------------|
|-------------------------------------|
|-------------------------------------|
|-------------------------------------|
|-7--7------7---7--3--3------3---3----|
|-5--5------5---5--1--1------1---1----|

Guitar 2
|-------------------------------------|
|-------------------------------------|
|-------------------------------------|
|-7-9 10 7-9-10-7-9---9-10---9-10---9-|
|-------------------8------8------8---|
|-------------------------------------|



Guitar 1
|-------------------------------------|
|-------------------------------------|
|-------------------------------------|
|-------------------------3-2---------|
|-5--5------5---5---5-3-2-----3-2h3p2-|
|-3--3------3---3---------------------|

Guitar 2
|-------------------------------------------|
|-------------------------------------------|
|-----------------------------10-9----------|
|-7-9 10 7-9-10-7-9-12-10-9-10----10-9h10p9-|
|-------------------------------------------|
|-------------------------------------------|




Guitar 1 & 2
|------------------------------------|
|------------------------------------|
|------------------------------------|
|-7-9-10-7-9-10-7-9---9-10--9-10---9-|
|-------------------8------8-----8---|
|------------------------------------|


|----------------------------------------------|
|----------------------------------------------|
|--------------------------------7-------------|
|----9-10----9-10----9-7-10-9------10-9h10p9-7-|
|-10------10------10----------10---------------|
|----------------------------------------------|


|------------------------------------|
|------------------------------------|
|------------------------------------|
|-7-9-10-7-9-10-7-9---9-10--9-10---9-|
|-------------------8------8-----8---|
|------------------------------------|


|---------------------------------------------|
|---------------------------------------------|
|------------------------------10-9-----------|
|----9-10----9-10----9-12-10-9------10-9h10p9-|
|-10------10------10--------------------------|
|---------------------------------------------|


Guitar 1
||---------------------------------------|
||o--------------------------------------|
||-----------------7---------------------|
||-7----------9-10---10-9-10-9h10p9-7--9-|
||o--------------------------------------|
||---------------------------------------|

Guitar 2
||---------------------------------------|
||o--------------------------------------|
||---------------------------------------|
||-7-------------------------------------|
||o7-------------------------------------|
||-5-------------------------------------|




Guitar 1
|---------------------------------------|
|---------------------------------------|
|-----------------7---------------------|
|-8----------9-10---10-9-10-9h10p9-7--9-|
|---------------------------------------|
|---------------------------------------|

Guitar 2
|---------------------------------------|
|---------------------------------------|
|---------------------------------------|
|-3-------------------------------------|
|-3-------------------------------------|
|-1-------------------------------------|



Guitar 1
|---------------------------------------|
|---------------------------------------|
|-----------------7---------------------|
|-10---------9-10---10-9-10-9h10p9-7--9-|
|---------------------------------------|
|---------------------------------------|

Guitar 2
|---------------------------------------|
|---------------------------------------|
|---------------------------------------|
|-5-------------------------------------|
|-5-------------------------------------|
|-3-------------------------------------|



Guitar 1
|-----------------------------------|
|-----------------------------------|
|-10-10-10-10-10-10-10-10-10-9-9-10-|
|-----------------------------------|
|-----------------------------------|
|-----------------------------------|

Guitar 2
|-------------------------|
|-------------------------|
|-------------------------|
|-7-7-7-7-7-7-7-7-7-5-5-7-|
|-------------------------|
|-------------------------|


Guitar 1
|----------------------------||
|-9-9-9-7-7-7---------------o||
|-------------9-9-9-10-10-10-||
|----------------------------||
|---------------------------o||
|----------------------------||

Guitar 2
|-------------------------||
|------------------------o||
|-------------------------||
|-5-5-5-------------------||
|-------8-8-8-5-5-5-7-7-7o||
|-------------------------||



Guitar 1 & 2
||------------------------------------|
||o-----------------------------------|
||------------------------------------|
||------------------------------------|
||o-7-7-7-9-7-7-10-7-------9-----10-7-|
||-------------------7-7-7---7-7------|


|------------------------------------|
|------------------------------------|
|------------------------------------|
|------------------9-----------------|
|-------9-----10---------10-----9----|
|-8-8-8---8-8----8---8-8----8-8------|


|------------------------------------|
|------------------------------------|
|------------------------------------|
|------------------------------------|
|--7-7-7-9-7-7-10-7-------9-----10-7-|
|-------------------7-7-7---7-7------|


|------------------------------------||
|-----------------------------------o||
|------------------------------------||
|------------------9-7---12----------||
|-------9-----10-------10--10-9-7-9-o||
|-8-8-8---8-8----8-------------------||



Guitar 1
|----------------------------------------------------|
|----------------------------------------------------|
|----------------------------------------------------|
|----------------------------------------------------|
|-------10-20-10-9-9-9-7-7-7-------9-9-9-6-6-6-7-7-7-|
|-8-8-8----------------------7-7-7-------------------|

Guitar 2
|-------------------------------------------------|
|-------------------------------------------------|
|-------------------------------------------------|
|-------9-9-9-7-7-7-5-5-5-------7-7-7-4-4-4-5-5-5-|
|-7-7-7-------------------5-5-5-------------------|
|-------------------------------------------------|



Guitar 1 & 2
||----------------------------------------|
||o---------------------------------------|
||----------------------------------------|
||----------9----7---------------9----7---|
||o7-7-9-10---10---7-7-7--7-9-10---10---9-|
||-0-0-------------0-0-0--0---------------|


||----------------------------------------------||
||o--------------------------------------------o||
||----------------------------------------------||
||----------9----7---12-10-9-------10-9---------||
||o7-7-9-10---10---9---------12-10------12-10-9o||
||-0-0------------------------------------------||


|------------------------------------------------------||
|-----------------------------------------------------o||
|------------------------------------------------------||
|---------------------------12-10-9-------10-9---------||
|-7-7------7-7-7-7------7-7---------12-10------12-10-9o||
|-0-0------0-0-0-0------0-0----------------------------||



|----------| 
|----------|
|----------|
|----------|
|-2--------|
|-0--------|
Добавлено: 11.07.2013
Другие материалы по этой песне:
  • Аккорды и текст

Страница создана 14.03.2012
http://primanota.ru/through-the-eyes-of-the-dead/between-the-gardens-that-bathe-in-blood-chords.htm
Привет, Гость.
Предлагаем пройти революционный курс по гитаре.
Подарок от PrimaNota.Ru, забирай!