PrimaNota.ru - самый крупный в мире бесплатный архив песенных текстов, аккордов, табулатур и нот


Through The Eyes Of The Dead - Beneath Dying Skies - текст песни, таба, видео

Регистрация Запомнить меня
Войти через:  Facebook Google Twitter Vk Yandex Mail.ru

Through The Eyes Of The Dead - Beneath Dying Skies - текст песни, таба, видео

Печатать
Просмотров: 85
Through The Eyes Of The Dead
Beneath Dying Skies
from the album "Scar Of Ages EP"

Transcribed by Jody Payne   1/14/07


UPDATED!!!! It's not so jumbled, and a little more organized.


Alright guys, I've seen alot of TTEOTD tabs that were right, except for the tuning. Just to 
set the record straight, TTEOTD played 6 string guitars tuned to C Standard (C F Bb Eb
C) on Scar Of Ages and The Knife Trade split album, NOT Drop C. They then began to play 7 
string guitars tuned to standard (B E A D G B E) on the new full length Bloodlust. Trust me 
on this, I know. They are from my area and I've seen them many times and I've talked to them 
about it. And I have videos to prove it.


This version appears on Scar Of Ages, not Bloodlust. Although it would be played the same 
on 7 strings. So it doesn't matter. Play it either way.


Also guys, I'm sorry it's so jumbled up. I don't feel like fixing it. I tabbed it out awhile 
back on TabIt and I just exported it to text. I hope it helps you as much as it did me.
99% sure that this is exactly how they play the song. Thank you. Leave comments and feedback.

===========================


Beneath Dying Skies

                                                                         
C  :----------------|-----------------|----------------|-----------------|
G  :----------------|-----------------|----------------|-----------------|
Eb :9---------------|5-------7--------|9---------------|5-------7--------|
Bb :9---------------|5-------7--------|9---------------|5-------7--------|
F  :7-----------7-7-|3-------5---10-9-|7-----------7-7-|3-------5---10-9-|
C  :7-----------7-7-|-----------------|7-----------7-7-|-----------------|

C  :----------------|-----------------|----------------|-----------------|
G  :----------------|-----------------|----------------|-----------------|
Eb :----------------|5-------7--------|----------------|5-------7--------|
Bb :2---------------|5-------7--------|2---------------|5-------7--------|
F  :2-----------2-2-|3-------5---10-9-|2-----------2-2-|3-------5---10-9-|
C  :0-----------0-0-|-----------------|0-----------0-0-|-----------------|

============================================================================

                                       
C  :-----------------------------------|
G  :-----------------------------------|
Eb :-----------------------------------|
Bb :--------10-10-10-10-9-9-9-9-7-7-7-7|
F  :7-7-7-7----------------------------|
C  :-----------------------------------|

C  :-----------------------------------|
G  :-----------------------------------|
Eb :-----------------------------------|
Bb :2----------------------------------|
F  :2---------------------------2---2--|
C  :0---------------------------0---0--|

============================================================================

                                            
C  :----------------------------------------|
G  :----------------------------------------|
Eb :----------------------------------------|
Bb :----------------------------------------|
F  :10-10-10-10-10-10-12-12-9-9-9-9--9-9-9-9|
C  :----------------------------------------|

C  :----------------------------------------|
G  :----------------------------------------|
Eb :-5----------------------7---------------|
Bb :-5----------------------7---------------|
F  :-3----------------------5-------10---9--|
C  :----------------------------------------|

============================================================================

                                       
C  :-----------------------------------|
G  :-----------------------------------|
Eb :-----------------------------------|
Bb :--------10-10-10-10-9-9-9-9-7-7-7-7|
F  :7-7-7-7----------------------------|
C  :-----------------------------------|

C  :-----------------------------------|
G  :-----------------------------------|
Eb :-----------------------------------|
Bb :2----------------------------------|
F  :2---------------------------2---2--|
C  :0---------------------------0---0--|

============================================================================

                                            
C  :----------------------------------------|
G  :----------------------------------------|
Eb :----------------------------------------|
Bb :10-10-10-10-10-10-12-12-9-9-9-9--9-9-9-9|
F  :----------------------------------------|
C  :----------------------------------------|

C  :----------------------------------------|
G  :----------------------------------------|
Eb :-5----------------------7---------------|
Bb :-5----------------------7---------------|
F  :-3----------------------5-------10---9--|
C  :----------------------------------------|

============================================================================

                                       
C  :-----------------------------------|
G  :-----------------------------------|
Eb :-----------------------------------|
Bb :--------10-10-10-10-9-9-9-9-7-7-7-7|
F  :7-7-7-7----------------------------|
C  :-----------------------------------|

C  :-----------------------------------|
G  :-----------------------------------|
Eb :-----------------------------------|
Bb :2----------------------------------|
F  :2---------------------------2---2--|
C  :0---------------------------0---0--|

============================================================================

                                            
C  :----------------------------------------|
G  :----------------------------------------|
Eb :----------------------------------------|
Bb :----------------------------------------|
F  :10-10-10-10-10-10-12-12-9-9-9-9--9-9-9-9|
C  :----------------------------------------|

C  :----------------------------------------|
G  :----------------------------------------|
Eb :-5----------------------7---------------|
Bb :-5----------------------7---------------|
F  :-3----------------------5-------10---9--|
C  :----------------------------------------|

============================================================================

                                       
C  :-----------------------------------|
G  :-----------------------------------|
Eb :-----------------------------------|
Bb :--------10-10-10-10-9-9-9-9-7-7-7-7|
F  :7-7-7-7----------------------------|
C  :-----------------------------------|

C  :-----------------------------------|
G  :-----------------------------------|
Eb :-----------------------------------|
Bb :2----------------------------------|
F  :2---------------------------2---2--|
C  :0---------------------------0---0--|

============================================================================

                                                                  
C  :----------------------------------------|---------------------|
G  :----------------------------------------|---------------------|
Eb :----------------------------------------|---------------------|
Bb :10-10-10-10-10-10-12-12-9-9-9-9--9-9-9-9|---------------------|
F  :----------------------------------------|7-p0-9-p0-10-p0-7-p0-|
C  :----------------------------------------|---------------------|

C  :----------------------------------------|---------------------|
G  :----------------------------------------|---------------------|
Eb :-5----------------------7---------------|---------------------|
Bb :-5----------------------7---------------|---------------------|
F  :-3----------------------5-------10---9--|7-p0-9-p0-10-p0-7-p0-|
C  :----------------------------------------|---------------------|

============================================================================

                                                                        
C  :----------------------|---------------------|-----------------------|
G  :----------------------|---------------------|-----------------------|
Eb :----------------------|---------------------|-----------------------|
Bb :----------------------|---------------------|-----------------------|
F  :9-p0-12-p0-10-p0-9-p0-|-----9-p0-10-p0------|------10-p0-9-p0-------|
C  :----------------------|8-p0------------8-p0-|10-p0------------10-p0-|

C  :----------------------|---------------------|-----------------------|
G  :----------------------|---------------------|-----------------------|
Eb :----------------------|---------------------|-----------------------|
Bb :----------------------|---------------------|-----------------------|
F  :9-p0-12-p0-10-p0-9-p0-|-----9-p0-10-p0------|------10-p0-9-p0-------|
C  :----------------------|8-p0------------8-p0-|10-p0------------10-p0-|

============================================================================

                                                                      
C  :---------------------|----------------------|---------------------|
G  :---------------------|----------------------|---------------------|
Eb :---------------------|----------------------|---------------------|
Bb :---------------------|----------------------|---------------------|
F  :7-p0-9-p0-10-p0-7-p0-|9-p0-12-p0-10-p0-9-p0-|-----9-p0-10-p0------|
C  :---------------------|----------------------|8-p0------------8-p0-|

C  :---------------------|----------------------|---------------------|
G  :---------------------|----------------------|---------------------|
Eb :---------------------|----------------------|---------------------|
Bb :---------------------|----------------------|---------------------|
F  :7-p0-9-p0-10-p0-7-p0-|9-p0-12-p0-10-p0-9-p0-|-----9-p0-10-p0------|
C  :---------------------|----------------------|8-p0------------8-p0-|

============================================================================

                                                                        
C  :-----------------------|---------------------|----------------------|
G  :-----------------------|---------------------|----------------------|
Eb :-----------------------|---------------------|----------------------|
Bb :-----------------------|---------------------|----------------------|
F  :------10-p0-9-p0-------|7-p0-9-p0-10-p0-7-p0-|9-p0-12-p0-10-p0-9-p0-|
C  :10-p0------------10-p0-|---------------------|----------------------|

C  :-----------------------|---------------------|----------------------|
G  :-----------------------|---------------------|----------------------|
Eb :-----------------------|---------------------|----------------------|
Bb :-----------------------|---------------------|----------------------|
F  :------10-p0-9-p0-------|7-p0-9-p0-10-p0-7-p0-|9-p0-12-p0-10-p0-9-p0-|
C  :10-p0------------10-p0-|---------------------|----------------------|

============================================================================

                                                                       
C  :---------------------|-----------------------|---------------------|
G  :---------------------|-----------------------|---------------------|
Eb :---------------------|-----------------------|---------------------|
Bb :---------------------|-----------------------|---------------------|
F  :-----9-p0-10-p0------|------10-p0-9-p0-------|7-p0-9-p0-10-p0-7-p0-|
C  :8-p0------------8-p0-|10-p0------------10-p0-|---------------------|

C  :---------------------|-----------------------|---------------------|
G  :---------------------|-----------------------|---------------------|
Eb :---------------------|-----------------------|---------------------|
Bb :---------------------|-----------------------|---------------------|
F  :-----9-p0-10-p0------|------10-p0-9-p0-------|7-p0-9-p0-10-p0-7-p0-|
C  :8-p0------------8-p0-|10-p0------------10-p0-|---------------------|

============================================================================

                                                                        
C  :----------------------|---------------------|-----------------------|
G  :----------------------|---------------------|-----------------------|
Eb :----------------------|---------------------|-----------------------|
Bb :----------------------|---------------------|-----------------------|
F  :9-p0-12-p0-10-p0-9-p0-|-----9-p0-10-p0------|------10-p0-9-p0-------|
C  :----------------------|8-p0------------8-p0-|10-p0------------10-p0-|

C  :----------------------|---------------------|-----------------------|
G  :----------------------|---------------------|-----------------------|
Eb :----------------------|---------------------|-----------------------|
Bb :----------------------|---------------------|-----------------------|
F  :9-p0-12-p0-10-p0-9-p0-|-----9-p0-10-p0------|------10-p0-9-p0-------|
C  :----------------------|8-p0------------8-p0-|10-p0------------10-p0-|

============================================================================

                                       
C  :-----------------------------------|
G  :-----------------------------------|
Eb :-----------------------------------|
Bb :-----------------------------------|
F  :7-7-7-7-9-9-9-9-10-10-10-10-7-7-7-7|
C  :-----------------------------------|

C  :-----------------------------------|
G  :-----------------------------------|
Eb :-----------------------------------|
Bb :-----------------------------------|
F  :7-7-7-7-9-9-9-9-10-10-10-10-7-7-7-7|
C  :-----------------------------------|

============================================================================

                                           
C  :---------------------------------------|
G  :---------------------------------------|
Eb :---------------------------------------|
Bb :---------------------------------------|
F  :9-9-9-9-12-12-12-12-10-10-10-10-9-9-9-9|
C  :---------------------------------------|

C  :---------------------------------------|
G  :---------------------------------------|
Eb :---------------------------------------|
Bb :---------------------------------------|
F  :9-9-9-9-12-12-12-12-10-10-10-10-9-9-9-9|
C  :---------------------------------------|

============================================================================

                                       
C  :-----------------------------------|
G  :-----------------------------------|
Eb :-----------------------------------|
Bb :-----------------------------------|
F  :--------9-9-9-9-10-10-10-10--------|
C  :8-8-8-8---------------------8-8-8-8|

C  :-----------------------------------|
G  :-----------------------------------|
Eb :-----------------------------------|
Bb :-----------------------------------|
F  :--------9-9-9-9-10-10-10-10--------|
C  :8-8-8-8---------------------8-8-8-8|

============================================================================

                                               
C  :-------------------------------------------|
G  :-------------------------------------------|
Eb :-------------------------------------------|
Bb :-------------------------------------------|
F  :------------10-10-10-10-9-9-9-9------------|
C  :10-10-10-10---------------------10-10-10-10|

C  :-------------------------------------------|
G  :-------------------------------------------|
Eb :-------------------------------------------|
Bb :-------------------------------------------|
F  :------------10-10-10-10-9-9-9-9------------|
C  :10-10-10-10---------------------10-10-10-10|

============================================================================

                                       
C  :-----------------------------------|
G  :-----------------------------------|
Eb :-----------------------------------|
Bb :-----------------------------------|
F  :7-7-7-7-9-9-9-9-10-10-10-10-7-7-7-7|
C  :-----------------------------------|

C  :-----------------------------------|
G  :-----------------------------------|
Eb :-----------------------------------|
Bb :-----------------------------------|
F  :7-7-7-7-9-9-9-9-10-10-10-10-7-7-7-7|
C  :-----------------------------------|

============================================================================

                                           
C  :---------------------------------------|
G  :---------------------------------------|
Eb :---------------------------------------|
Bb :---------------------------------------|
F  :9-9-9-9-12-12-12-12-10-10-10-10-9-9-9-9|
C  :---------------------------------------|

C  :---------------------------------------|
G  :---------------------------------------|
Eb :---------------------------------------|
Bb :---------------------------------------|
F  :9-9-9-9-12-12-12-12-10-10-10-10-9-9-9-9|
C  :---------------------------------------|

============================================================================

                                       
C  :-----------------------------------|
G  :-----------------------------------|
Eb :-----------------------------------|
Bb :-----------------------------------|
F  :--------9-9-9-9-10-10-10-10--------|
C  :8-8-8-8---------------------8-8-8-8|

C  :-----------------------------------|
G  :-----------------------------------|
Eb :-----------------------------------|
Bb :-----------------------------------|
F  :--------9-9-9-9-10-10-10-10--------|
C  :8-8-8-8---------------------8-8-8-8|

============================================================================

                                               
C  :-------------------------------------------|
G  :-------------------------------------------|
Eb :-------------------------------------------|
Bb :-------------------------------------------|
F  :------------10-10-10-10-9-9-9-9------------|
C  :10-10-10-10---------------------10-10-10-10|

C  :-------------------------------------------|
G  :-------------------------------------------|
Eb :-------------------------------------------|
Bb :-------------------------------------------|
F  :------------10-10-10-10-9-9-9-9------------|
C  :10-10-10-10---------------------10-10-10-10|

============================================================================

                                                   
C  :-----------------------------------------------|
G  :-----------------------------------------------|
Eb :-----------------------------------------------|
Bb :-----------------------------------------------|
F  :10-10-10-10-12-12-12-12-14-14-14-14-10-10-10-10|
C  :-----------------------------------------------|

C  :-----------------------------------------------|
G  :-----------------------------------------------|
Eb :-----------------------------------------------|
Bb :-----------------------------------------------|
F  :-7--7--7--7--9--9--9--9-10-10-10-10--7--7--7--7|
C  :-----------------------------------------------|

============================================================================

                                                   
C  :-----------------------------------------------|
G  :-----------------------------------------------|
Eb :-----------------------------------------------|
Bb :-----------------------------------------------|
F  :12-12-12-12-15-15-15-15-14-14-14-14-12-12-12-12|
C  :-----------------------------------------------|

C  :-----------------------------------------------|
G  :-----------------------------------------------|
Eb :-----------------------------------------------|
Bb :-----------------------------------------------|
F  :-9--9--9--9-12-12-12-12-10-10-10-10--9--9--9--9|
C  :-----------------------------------------------|

============================================================================

                                                   
C  :-----------------------------------------------|
G  :-----------------------------------------------|
Eb :-----------------------------------------------|
Bb :-----------------------------------------------|
F  :------------12-12-12-12-14-14-14-14------------|
C  :12-12-12-12-------------------------12-12-12-12|

C  :-----------------------------------------------|
G  :-----------------------------------------------|
Eb :-----------------------------------------------|
Bb :-----------------------------------------------|
F  :-------------9--9--9--9-10-10-10-10------------|
C  :-8--8--8--8--------------------------8--8--8--8|

============================================================================

                                                   
C  :-----------------------------------------------|
G  :-----------------------------------------------|
Eb :-----------------------------------------------|
Bb :-----------------------------------------------|
F  :12-12-12-12-15-15-15-15-14-14-14-14-12-12-12-12|
C  :-----------------------------------------------|

C  :-----------------------------------------------|
G  :-----------------------------------------------|
Eb :-----------------------------------------------|
Bb :-----------------------------------------------|
F  :------------10-10-10-10--9--9--9--9------------|
C  :10-10-10-10-------------------------10-10-10-10|

============================================================================

                                                   
C  :-----------------------------------------------|
G  :-----------------------------------------------|
Eb :-----------------------------------------------|
Bb :-----------------------------------------------|
F  :10-10-10-10-12-12-12-12-14-14-14-14-10-10-10-10|
C  :-----------------------------------------------|

C  :-----------------------------------------------|
G  :-----------------------------------------------|
Eb :-----------------------------------------------|
Bb :-----------------------------------------------|
F  :-7--7--7--7--9--9--9--9-10-10-10-10--7--7--7--7|
C  :-----------------------------------------------|

============================================================================

                                                   
C  :-----------------------------------------------|
G  :-----------------------------------------------|
Eb :-----------------------------------------------|
Bb :-----------------------------------------------|
F  :12-12-12-12-15-15-15-15-14-14-14-14-12-12-12-12|
C  :-----------------------------------------------|

C  :-----------------------------------------------|
G  :-----------------------------------------------|
Eb :-----------------------------------------------|
Bb :-----------------------------------------------|
F  :-9--9--9--9-12-12-12-12-10-10-10-10--9--9--9--9|
C  :-----------------------------------------------|

============================================================================

                                                   
C  :-----------------------------------------------|
G  :-----------------------------------------------|
Eb :-----------------------------------------------|
Bb :-----------------------------------------------|
F  :------------12-12-12-12-14-14-14-14------------|
C  :12-12-12-12-------------------------12-12-12-12|

C  :-----------------------------------------------|
G  :-----------------------------------------------|
Eb :-----------------------------------------------|
Bb :-----------------------------------------------|
F  :-------------9--9--9--9-10-10-10-10------------|
C  :-8--8--8--8--------------------------8--8--8--8|

============================================================================

                                                                         
C  :-----------------------------------------------|---------------------|
G  :-----------------------------------------------|---------------------|
Eb :-----------------------------------------------|---------------------|
Bb :-----------------------------------------------|---------------------|
F  :12-12-12-12-15-15-15-15-14-14-14-14-12-12-12-12|2-*---2-2-2-2-2-2-2-2|
C  :-----------------------------------------------|0-*---0-0-0-0-0-0-0-0|

C  :-----------------------------------------------|---------------------|
G  :-----------------------------------------------|---------------------|
Eb :-----------------------------------------------|---------------------|
Bb :-----------------------------------------------|---------------------|
F  :------------10-10-10-10--9--9--9--9------------|2-*---2-2-2-2-2-2-2-2|
C  :10-10-10-10-------------------------10-10-10-10|0-*---0-0-0-0-0-0-0-0|

============================================================================

                                                                     
C  :---------------------|---------------------|---------------------|
G  :---------------------|---------------------|---------------------|
Eb :---------------------|---------------------|---------------------|
Bb :---------------------|---------------------|---------------------|
F  :2-*---2-2-2-2-2-2-2-2|2-*---2-2-2-2-2-2-2-2|2-*---2-2-2-2-2-2-2-2|
C  :0-*---0-0-0-0-0-0-0-0|0-*---0-0-0-0-0-0-0-0|0-*---0-0-0-0-0-0-0-0|

C  :---------------------|---------------------|---------------------|
G  :---------------------|---------------------|---------------------|
Eb :---------------------|---------------------|---------------------|
Bb :---------------------|---------------------|---------------------|
F  :2-*---2-2-2-2-2-2-2-2|2-*---2-2-2-2-2-2-2-2|2-*---2-2-2-2-2-2-2-2|
C  :0-*---0-0-0-0-0-0-0-0|0-*---0-0-0-0-0-0-0-0|0-*---0-0-0-0-0-0-0-0|

============================================================================

                                                                 
C  :------------------------------|------------------------------|
G  :------------------------------|------------------------------|
Eb :------------------------------|------------------------------|
Bb :------------------------------|------------------------------|
F  :2-*-------2-2-2-2--2-2----2--2|2-*-------2-2-2-2--2-2----2--2|
C  :0-*-------0-0-0-0--0-0----0--0|0-*-------0-0-0-0--0-0----0--0|

C  :------------------------------|------------------------------|
G  :------------------------------|------------------------------|
Eb :------------------------------|------------------------------|
Bb :-------7--------9-10-7-9------|-------7--------9-10-7-9------|
F  :7-9-10---10-9-7----------10-12|7-9-10---10-9-7----------10-12|
C  :------------------------------|------------------------------|

============================================================================

                                                                  
C  :------------------------------|-------------------------------|
G  :------------------------------|-------------------------------|
Eb :------------------------------|-------------------------------|
Bb :------------------------------|-------------------------------|
F  :2-*-------2-2-2-2--2-2----2--2|-2-*-------2-2-2-2--2-2----2--2|
C  :0-*-------0-0-0-0--0-0----0--0|-0-*-------0-0-0-0--0-0----0--0|

C  :------------------------------|-------------------------------|
G  :------------------------------|-------------------------------|
Eb :------------------------------|-------------------------------|
Bb :-------7--------9-10-7-9------|--------7--------9-10-7-9------|
F  :--9-10---10-9-7----------10-12|---9-10---10-9-7----------10-12|
C  :8-----------------------------|10-----------------------------|

============================================================================

                                                             
C  :-----------------|-------------------|-------------------|
G  :-----------------|-------------------|-------------------|
Eb :-----------------|-------------------|-------------------|
Bb :2----------------|-------------------|(2)----------------|
F  :2----------------|-------------------|(2)----------------|
C  :0----------------|-------------------|(0)----------------|

C  :-----------------|-------------------|-------------------|
G  :-----------------|-------------------|-------------------|
Eb :-----------------|-------------------|-------------------|
Bb :----10---9-------|----10---9---9-h10-|------10---9-------|
F  :7-7----7---------|7-7----7---7-------|-7--7----7---------|
C  :-----------------|-------------------|-------------------|

============================================================================

                                                             
C  :-------------------|-----------------|-------------------|
G  :-------------------|-----------------|-------------------|
Eb :-------------------|5----------------|-------------------|
Bb :-------------------|5----------------|-------------------|
F  :-------------------|3----------------|-------------------|
C  :-------------------|-----------------|-------------------|

C  :-------------------|-----------------|-------------------|
G  :-------------------|-----------------|-------------------|
Eb :-------------------|-----------------|-------------------|
Bb :----10---9---9-h10-|----10---9-------|----10---9---9-h10-|
F  :7-7----7---7-------|-----------------|-------------------|
C  :-------------------|8-8----8---------|8-8----8---8-------|

============================================================================

                                                                  
C  :--------------------|-----------------------|-----------------|
G  :--------------------|-----------------------|-----------------|
Eb :-7------------------|-----------------------|-----------------|
Bb :-7------------------|-----------------------|2----------------|
F  :-5------------------|-----------------------|2----------------|
C  :--------------------|-----------------------|0----------------|

C  :--------------------|-----------------------|-----------------|
G  :--------------------|-----------------------|-----------------|
Eb :--------------------|-----------------------|-----------------|
Bb :------10----9-------|------10----9----9-h10-|----10---9-------|
F  :--------------------|-----------------------|7-7----7---------|
C  :10-10----10---------|10-10----10---10-------|-----------------|

============================================================================

                                                               
C  :-------------------|-------------------|-------------------|
G  :-------------------|-------------------|-------------------|
Eb :-------------------|-------------------|-------------------|
Bb :-------------------|(2)----------------|-------------------|
F  :-------------------|(2)----------------|-------------------|
C  :-------------------|(0)----------------|-------------------|

C  :-------------------|-------------------|-------------------|
G  :-------------------|-------------------|-------------------|
Eb :-------------------|-------------------|-------------------|
Bb :----10---9---9-h10-|------10---9-------|----10---9---9-h10-|
F  :7-7----7---7-------|-7--7----7---------|7-7----7---7-------|
C  :-------------------|-------------------|-------------------|

============================================================================

                                                              
C  :-----------------|-------------------|--------------------|
G  :-----------------|-------------------|--------------------|
Eb :5----------------|-------------------|-7------------------|
Bb :5----------------|-------------------|-7------------------|
F  :3----------------|-------------------|-5------------------|
C  :-----------------|-------------------|--------------------|

C  :-----------------|-------------------|--------------------|
G  :-----------------|-------------------|--------------------|
Eb :-----------------|-------------------|--------------------|
Bb :----10---9-------|----10---9---9-h10-|------10----9-------|
F  :-----------------|-------------------|--------------------|
C  :8-8----8---------|8-8----8---8-------|10-10----10---------|

============================================================================

                                                                    
C  :-----------------------|----------------------|-----------------|
G  :-----------------------|----------------------|-----------------|
Eb :-----------------------|----------------------|-----------------|
Bb :-----------------------|9---------------------|9-10-7-9-5-7-4-5-|
F  :-----------------------|7---7-7-7-7-7-7-7-7-7-|---------------3-|
C  :-----------------------|----------------------|-----------------|

C  :-----------------------|----------------------|-----------------|
G  :-----------------------|----------------------|-----------------|
Eb :-----------------------|----------------------|-----------------|
Bb :------10----9----9-h10-|9---*-----------------|---------------5-|
F  :-----------------------|7---*-----------------|---------------3-|
C  :10-10----10---10-------|----------------------|-----------------|

============================================================================

                                                            
C  :----------------|----------------|----------------------|
G  :----------------|----------------|----------------------|
Eb :----------------|----------------|----------------------|
Bb :--------4-7-5-7-|--------7-5-4---|9---------------------|
F  :--3-3---------5-|--5-5-----------|7---7-7-7-7-7-7-7-7-7-|
C  :----------------|----------------|----------------------|

C  :----------------|----------------|----------------------|
G  :----------------|----------------|----------------------|
Eb :----------------|----------------|----------------------|
Bb :--------4-7-5-7-|--------7-5-4---|9---------------------|
F  :--3-3---------5-|--5-5-----------|7---7-7-7-7-7-7-7-7-7-|
C  :----------------|----------------|----------------------|

============================================================================

                                                       
C  :-----------------|----------------|----------------|
G  :-----------------|----------------|----------------|
Eb :-----------------|----------------|----------------|
Bb :9-10-7-9-5-7-4-5-|--------4-7-5-7-|--------7-5-4---|
F  :---------------3-|--3-3---------5-|--5-5-----------|
C  :-----------------|----------------|----------------|

C  :-----------------|----------------|----------------|
G  :-----------------|----------------|----------------|
Eb :-----------------|----------------|----------------|
Bb :9-10-7-9-5-7-4-5-|--------4-7-5-7-|--------7-5-4---|
F  :---------------3-|--3-3---------5-|--5-5-----------|
C  :-----------------|----------------|----------------|

============================================================================

                                                             
C  :----------------------|-----------------|----------------|
G  :----------------------|-----------------|----------------|
Eb :----------------------|-----------------|----------------|
Bb :9---------------------|9-10-7-9-5-7-4-5-|--------4-7-5-7-|
F  :7---7-7-7-7-7-7-7-7-7-|---------------3-|--3-3---------5-|
C  :----------------------|-----------------|----------------|

C  :----------------------|-----------------|----------------|
G  :----------------------|-----------------|----------------|
Eb :----------------------|-----------------|----------------|
Bb :9---------------------|9-10-7-9-5-7-4-5-|--------4-7-5-7-|
F  :7---7-7-7-7-7-7-7-7-7-|---------------3-|--3-3---------5-|
C  :----------------------|-----------------|----------------|

============================================================================

                                                             
C  :----------------|----------------------|-----------------|
G  :----------------|----------------------|-----------------|
Eb :----------------|----------------------|-----------------|
Bb :--------7-5-4---|9---------------------|9-10-7-9-5-7-4-5-|
F  :--5-5-----------|7---7-7-7-7-7-7-7-7-7-|---------------3-|
C  :----------------|----------------------|-----------------|

C  :----------------|----------------------|-----------------|
G  :----------------|----------------------|-----------------|
Eb :----------------|----------------------|-----------------|
Bb :--------7-5-4---|9---------------------|9-10-7-9-5-7-4-5-|
F  :--5-5-----------|7---7-7-7-7-7-7-7-7-7-|---------------3-|
C  :----------------|----------------------|-----------------|

============================================================================

                                                                    
C  :----------------|----------------|----------------|-------------|
G  :----------------|----------------|----------------|-------------|
Eb :----------------|----------------|----------------|-------------|
Bb :--------4-7-5-7-|--------7-5-4---|----------------|-------------|
F  :--3-3---------5-|--5-5-----------|2-2*2-2*2-2*2-2*|2-2*---------|
C  :----------------|----------------|0-0*0-0*0-0*0-0*|0-0*---------|

C  :----------------|----------------|----------------|-------------|
G  :----------------|----------------|----------------|-------------|
Eb :----------------|----------------|----------------|-------------|
Bb :--------4-7-5-7-|--------7-5-4---|----------------|-------------|
F  :--3-3---------5-|--5-5-----------|2-2*2-2*2-2*2-2*|2-2*---------|
C  :----------------|----------------|0-0*0-0*0-0*0-0*|0-0*---------|

============================================================================

                                                                 
C  :----------------|-------------|----------------|-------------|
G  :----------------|-------------|----------------|-------------|
Eb :----------------|-------------|----------------|-------------|
Bb :----------------|-------------|----------------|-------------|
F  :2-2*2-2*2-2*2-2*|2-2*---------|2-2*2-2*2-2*2-2*|2-2*---------|
C  :0-0*0-0*0-0*0-0*|0-0*---------|0-0*0-0*0-0*0-0*|0-0*---------|

C  :----------------|-------------|----------------|-------------|
G  :----------------|-------------|----------------|-------------|
Eb :----------------|-------------|----------------|-------------|
Bb :----------------|-------------|----------------|-------------|
F  :2-2*2-2*2-2*2-2*|2-2*---------|2-2*2-2*2-2*2-2*|2-2*---------|
C  :0-0*0-0*0-0*0-0*|0-0*---------|0-0*0-0*0-0*0-0*|0-0*---------|

============================================================================

                                                                         
C  :----------------|------------|-----------------------|---------------|
G  :----------------|------------|-----------------------|---------------|
Eb :----------------|------------|-----------------------|---------------|
Bb :----------------|------------|-----------------------|---------------|
F  :2-2*2-2*2-2*2-2*|2-----------|2-2-2-2-2-2-2-2-2-2-2-2|2-2-2-2-*------|
C  :0-0*0-0*0-0*0-0*|0-----------|0-0-0-0-0-0-0-0-0-0-0-0|0-0-0-0-*------|

C  :----------------|------------|-----------------------|---------------|
G  :----------------|------------|-----------------------|---------------|
Eb :----------------|------------|-----------------------|---------------|
Bb :----------------|------------|-----------------------|---------------|
F  :2-2*2-2*2-2*2-2*|2-----------|2-2-2-2-2-2-2-2-2-2-2-2|2-2-2-2-*------|
C  :0-0*0-0*0-0*0-0*|0-----------|0-0-0-0-0-0-0-0-0-0-0-0|0-0-0-0-*------|

============================================================================

                                                        
C  :-----------------|---------------------|------------|
G  :-----------------|---------------------|------------|
Eb :-----------------|---------------------|------------|
Bb :-----------------|---------------------|------------|
F  :------2-2-2-2-2-2|2-2-2-2-2-2-2-2-2-2-*|------------|
C  :------0-0-0-0-0-0|0-0-0-0-0-0-0-0-0-0-*|------------|

C  :-----------------|---------------------|------------|
G  :-----------------|---------------------|------------|
Eb :-----------------|---------------------|------------|
Bb :-----------------|---------------------|------------|
F  :------2-2-2-2-2-2|2-2-2-2-2-2-2-2-2-2-*|------------|
C  :------0-0-0-0-0-0|0-0-0-0-0-0-0-0-0-0-*|------------|

============================================================================

                                                             
C  :-----------------------|---------------|-----------------|
G  :-----------------------|---------------|-----------------|
Eb :-----------------------|---------------|-----------------|
Bb :-----------------------|---------------|-----------------|
F  :2-2-2-2-2-2-2-2-2-2-2-2|2-2-2-2-*------|------2-2-2-2-2-2|
C  :0-0-0-0-0-0-0-0-0-0-0-0|0-0-0-0-*------|------0-0-0-0-0-0|

C  :-----------------------|---------------|-----------------|
G  :-----------------------|---------------|-----------------|
Eb :-----------------------|---------------|-----------------|
Bb :-----------------------|---------------|-----------------|
F  :2-2-2-2-2-2-2-2-2-2-2-2|2-2-2-2-*------|------2-2-2-2-2-2|
C  :0-0-0-0-0-0-0-0-0-0-0-0|0-0-0-0-*------|------0-0-0-0-0-0|

============================================================================

                                                              
C  :---------------------|------------|-----------------------|
G  :---------------------|------------|-----------------------|
Eb :---------------------|------------|-----------------------|
Bb :---------------------|------------|-----------------------|
F  :2-2-2-2-2-2-2-2-2-2-*|------------|2-2-2-2-2-2-2-2-2-2-2-2|
C  :0-0-0-0-0-0-0-0-0-0-*|------------|0-0-0-0-0-0-0-0-0-0-0-0|

C  :---------------------|------------|-----------------------|
G  :---------------------|------------|-----------------------|
Eb :---------------------|------------|-----------------------|
Bb :---------------------|------------|-----------------------|
F  :2-2-2-2-2-2-2-2-2-2-*|------------|2-2-2-2-2-2-2-2-2-2-2-2|
C  :0-0-0-0-0-0-0-0-0-0-*|------------|0-0-0-0-0-0-0-0-0-0-0-0|

============================================================================

                                                                        
C  :---------------|-----------------|---------------------|------------|
G  :---------------|-----------------|---------------------|------------|
Eb :---------------|-----------------|---------------------|------------|
Bb :---------------|-----------------|---------------------|------------|
F  :2-2-2-2-*------|------2-2-2-2-2-2|2-2-2-2-2-2-2-2-2-2-*|------------|
C  :0-0-0-0-*------|------0-0-0-0-0-0|0-0-0-0-0-0-0-0-0-0-*|------------|

C  :---------------|-----------------|---------------------|------------|
G  :---------------|-----------------|---------------------|------------|
Eb :---------------|-----------------|---------------------|------------|
Bb :---------------|-----------------|---------------------|------------|
F  :2-2-2-2-*-2-2-2|--2---2-2-2-2-2-2|2-2-2-2-2-2-2-2-2-2-*|-2-2-2--2---|
C  :0-0-0-0-*-0-0-0|--0---0-0-0-0-0-0|0-0-0-0-0-0-0-0-0-0-*|-0-0-0--0---|

============================================================================

                                                             
C  :-----------------------|---------------|-----------------|
G  :-----------------------|---------------|-----------------|
Eb :-----------------------|---------------|-----------------|
Bb :-----------------------|---------------|-----------------|
F  :2-2-2-2-2-2-2-2-2-2-2-2|2-2-2-2-*------|------2-2-2-2-2-2|
C  :0-0-0-0-0-0-0-0-0-0-0-0|0-0-0-0-*------|------0-0-0-0-0-0|

C  :-----------------------|---------------|-----------------|
G  :-----------------------|---------------|-----------------|
Eb :-----------------------|---------------|-----------------|
Bb :-----------------------|---------------|-----------------|
F  :2-2-2-2-2-2-2-2-2-2-2-2|2-2-2-2-*-2-2-2|--2---2-2-2-2-2-2|
C  :0-0-0-0-0-0-0-0-0-0-0-0|0-0-0-0-*-0-0-0|--0---0-0-0-0-0-0|

============================================================================

                                      This slide  sound  wierd but  it's  
C  :---------------------|------------|-----------------|-----------------|
G  :---------------------|------------|-----------------|-----------------|
Eb :---------------------|------------|-----------------|-----------------|
Bb :---------------------|------------|-----------------|-----------------|
F  :2-2-2-2-2-2-2-2-2-2-*|------------|2---2---3-/--6---|2---2---3-/--6---|
C  :0-0-0-0-0-0-0-0-0-0-*|------------|0---0-0-1-/--4---|0---0-0-1-/--4---|

C  :---------------------|------------|-----------------|-----------------|
G  :---------------------|------------|-----------------|-----------------|
Eb :---------------------|------------|-----------------|-----------------|
Bb :---------------------|------------|-----------------|-----------------|
F  :2-2-2-2-2-2-2-2-2-2-*|-2-2-2--2---|2-*--------------|2-*--------------|
C  :0-0-0-0-0-0-0-0-0-0-*|-0-0-0--0---|0-*--------------|0-*--------------|

============================================================================

   right, tru st me.                                                   
C  :-----------------|-------------------------------|-----------------|
G  :-----------------|-------------------------------|-----------------|
Eb :-----------------|-------------------------------|-----------------|
Bb :-----------------|-------------------------------|-----------------|
F  :2---2---3-/--6---|-------------------------------|2---2---3-/--6---|
C  :0---0-0-1-/--4---|0-0-0-0-4-4-4-4-1-1-1-1-5-5-5-5|0---0-0-1-/--4---|

C  :-----------------|-------------------------------|-----------------|
G  :-----------------|-------------------------------|-----------------|
Eb :-----------------|-------------------------------|-----------------|
Bb :-----------------|-------------------------------|-----------------|
F  :2-*--------------|-------------------------------|2---2---3-/--6---|
C  :0-*--------------|0-0-0-0-4-4-4-4-1-1-1-1-5-5-5-5|0---0-0-1-/--4---|

============================================================================

                                                                       
C  :-----------------|-----------------|-------------------------------|
G  :-----------------|-----------------|-------------------------------|
Eb :-----------------|-----------------|-------------------------------|
Bb :-----------------|-----------------|-------------------------------|
F  :2---2---3-/--6---|2---2---3-/--6---|-------------------------------|
C  :0---0-0-1-/--4---|0---0-0-1-/--4---|0-0-0-0-4-4-4-4-1-1-1-1-5-5-5-5|

C  :-----------------|-----------------|-------------------------------|
G  :-----------------|-----------------|-------------------------------|
Eb :-----------------|-----------------|-------------------------------|
Bb :-----------------|-----------------|-------------------------------|
F  :2---2---3-/--6---|2---2---3-/--6---|-------------------------------|
C  :0---0-0-1-/--4---|0---0-0-1-/--4---|0-0-0-0-4-4-4-4-1-1-1-1-5-5-5-5|

============================================================================

                                                         
C  :-----------------|-----------------|-----------------|
G  :-----------------|-----------------|-----------------|
Eb :-----------------|-----------------|-----------------|
Bb :-----------------|-----------------|-----------------|
F  :2---2---3-/--6---|2---2---3-/--6---|2---2---3-/--6---|
C  :0---0-0-1-/--4---|0---0-0-1-/--4---|0---0-0-1-/--4---|

C  :-----------------|-----------------|-----------------|
G  :-----------------|-----------------|-----------------|
Eb :-----------------|-----------------|-----------------|
Bb :-----------------|-----------------|-----------------|
F  :2---2---3-/--6---|2---2---3-/--6---|2---2---3-/--6---|
C  :0---0-0-1-/--4---|0---0-0-1-/--4---|0---0-0-1-/--4---|

============================================================================

                                                                       
C  :-------------------------------|-----------------|-----------------|
G  :-------------------------------|-----------------|-----------------|
Eb :-------------------------------|-----------------|-----------------|
Bb :-------------------------------|-----------------|-----------------|
F  :-------------------------------|2---2---3-/--6---|2---2---3-/--6---|
C  :0-0-0-0-4-4-4-4-1-1-1-1-5-5-5-5|0---0-0-1-/--4---|0---0-0-1-/--4---|

C  :-------------------------------|-----------------|-----------------|
G  :-------------------------------|-----------------|-----------------|
Eb :-------------------------------|-----------------|-----------------|
Bb :-------------------------------|-----------------|-----------------|
F  :-------------------------------|2---2---3-/--6---|2---2---3-/--6---|
C  :0-0-0-0-4-4-4-4-1-1-1-1-5-5-5-5|0---0-0-1-/--4---|0---0-0-1-/--4---|

============================================================================

                                                                       
C  :-----------------|-------------------------------|-----------------|
G  :-----------------|-------------------------------|-----------------|
Eb :-----------------|-------------------------------|-----------------|
Bb :-----------------|-------------------------------|-----------------|
F  :2---2---3-/--6---|-------------------------------|2---2---3-/--6---|
C  :0---0-0-1-/--4---|0-0-0-0-4-4-4-4-1-1-1-1-5-5-5-5|0---0-0-1-/--4---|

C  :-----------------|-------------------------------|-----------------|
G  :-----------------|-------------------------------|-----------------|
Eb :-----------------|-------------------------------|-----------------|
Bb :-----------------|-------------------------------|-----------------|
F  :2---2---3-/--6---|-------------------------------|2---2---3-/--6---|
C  :0---0-0-1-/--4---|0-0-0-0-4-4-4-4-1-1-1-1-5-5-5-5|0---0-0-1-/--4---|

============================================================================

                                                                       
C  :-----------------|-----------------|-------------------------------|
G  :-----------------|-----------------|-------------------------------|
Eb :-----------------|-----------------|-------------------------------|
Bb :-----------------|-----------------|-------------------------------|
F  :2---2---3-/--6---|2---2---3-/--6---|-------------------------------|
C  :0---0-0-1-/--4---|0---0-0-1-/--4---|0-0-0-0-4-4-4-4-1-1-1-1-5-5-5-5|

C  :-----------------|-----------------|-------------------------------|
G  :-----------------|-----------------|-------------------------------|
Eb :-----------------|-----------------|-------------------------------|
Bb :-----------------|-----------------|-------------------------------|
F  :2---2---3-/--6---|2---2---3-/--6---|-------------------------------|
C  :0---0-0-1-/--4---|0---0-0-1-/--4---|0-0-0-0-4-4-4-4-1-1-1-1-5-5-5-5|

============================================================================

                                                                           
C  :-----------------------|-----------------------|-----------------------|
G  :-----------------------|-----------------------|-----------------------|
Eb :-----------------------|-----------------------|-----------------------|
Bb :-----------------------|-----------------------|-----------------------|
F  :-----------------------|-----------------------|-----------------------|
C  :0-0-0-0-0-0-0-0-0-0-0-0|4-4-4-4-4-4-4-4-4-4-4-4|1-1-1-1-1-1-1-1-1-1-1-1|

C  :-----------------------|-----------------------|-----------------------|
G  :-----------------------|-----------------------|-----------------------|
Eb :-----------------------|-----------------------|-----------------------|
Bb :-----------------------|-----------------------|-----------------------|
F  :-----------------------|-----------------------|-----------------------|
C  :0-0-0-0-0-0-0-0-0-0-0-0|4-4-4-4-4-4-4-4-4-4-4-4|1-1-1-1-1-1-1-1-1-1-1-1|

============================================================================

                                                                           
C  :-----------------------|-----------------------|-----------------------|
G  :-----------------------|-----------------------|-----------------------|
Eb :-----------------------|-----------------------|-----------------------|
Bb :-----------------------|-----------------------|-----------------------|
F  :-----------------------|-----------------------|-----------------------|
C  :5-5-5-5-5-5-5-5-5-5-5-5|0-0-0-0-0-0-0-0-0-0-0-0|4-4-4-4-4-4-4-4-4-4-4-4|

C  :-----------------------|-----------------------|-----------------------|
G  :-----------------------|-----------------------|-----------------------|
Eb :-----------------------|-----------------------|-----------------------|
Bb :-----------------------|-----------------------|-----------------------|
F  :-----------------------|-----------------------|-----------------------|
C  :5-5-5-5-5-5-5-5-5-5-5-5|0-0-0-0-0-0-0-0-0-0-0-0|4-4-4-4-4-4-4-4-4-4-4-4|

============================================================================

                                                                
C  :-----------------------|------------|-----------------------|
G  :-----------------------|------------|-----------------------|
Eb :-----------------------|------------|-----------------------|
Bb :-----------------------|------------|-----------------------|
F  :-----------------------|4-1-0-5-1-0-|-----------------------|
C  :1-1-1-1-1-1-1-1-1-1-1-1|4-1-0-5-1-0-|0-0-0-0-0-0-0-0-0-0-0-0|

C  :-----------------------|------------|-----------------------|
G  :-----------------------|------------|-----------------------|
Eb :-----------------------|------------|-----------------------|
Bb :-----------------------|------------|-----------------------|
F  :-----------------------|4-1-0-5-1-0-|-----------------------|
C  :1-1-1-1-1-1-1-1-1-1-1-1|4-1-0-5-1-0-|0-0-0-0-0-0-0-0-0-0-0-0|

============================================================================

                                                                           
C  :-----------------------|-----------------------|-----------------------|
G  :-----------------------|-----------------------|-----------------------|
Eb :-----------------------|-----------------------|-----------------------|
Bb :-----------------------|-----------------------|-----------------------|
F  :-----------------------|-----------------------|-----------------------|
C  :4-4-4-4-4-4-4-4-4-4-4-4|1-1-1-1-1-1-1-1-1-1-1-1|5-5-5-5-5-5-5-5-5-5-5-5|

C  :-----------------------|-----------------------|-----------------------|
G  :-----------------------|-----------------------|-----------------------|
Eb :-----------------------|-----------------------|-----------------------|
Bb :-----------------------|-----------------------|-----------------------|
F  :-----------------------|-----------------------|-----------------------|
C  :4-4-4-4-4-4-4-4-4-4-4-4|1-1-1-1-1-1-1-1-1-1-1-1|5-5-5-5-5-5-5-5-5-5-5-5|

============================================================================

                                                                           
C  :-----------------------|-----------------------|-----------------------|
G  :-----------------------|-----------------------|-----------------------|
Eb :-----------------------|-----------------------|-----------------------|
Bb :-----------------------|-----------------------|-----------------------|
F  :-----------------------|-----------------------|-----------------------|
C  :0-0-0-0-0-0-0-0-0-0-0-0|4-4-4-4-4-4-4-4-4-4-4-4|1-1-1-1-1-1-1-1-1-1-1-1|

C  :-----------------------|-----------------------|-----------------------|
G  :-----------------------|-----------------------|-----------------------|
Eb :-----------------------|-----------------------|-----------------------|
Bb :-----------------------|-----------------------|-----------------------|
F  :-----------------------|-----------------------|-----------------------|
C  :0-0-0-0-0-0-0-0-0-0-0-0|4-4-4-4-4-4-4-4-4-4-4-4|1-1-1-1-1-1-1-1-1-1-1-1|

============================================================================

                                                           
C  :------------|------------|-----------------------------|
G  :------------|------------|-----------------------------|
Eb :------------|------------|-----------------------------|
Bb :------------|------------|-----------------------------|
F  :4-1-0-5-1-0-|4-1-0-5-1-0-|-------------7--7--7--7--7--7|
C  :4-1-0-5-1-0-|4-1-0-5-1-0-|0-0-0-0-0-0------------------|

C  :------------|------------|-----------------------------|
G  :------------|------------|-----------------------------|
Eb :------------|------------|-----------------------------|
Bb :------------|------------|-----------------------------|
F  :4-1-0-5-1-0-|4-1-0-5-1-0-|------------10-10-10-10-10-10|
C  :4-1-0-5-1-0-|4-1-0-5-1-0-|0-0-0-0-0-0------------------|

============================================================================

                                                                 
C  :-----------------------------------|------------|------------|
G  :-----------------------------------|------------|------------|
Eb :-----------------------------------|------------|------------|
Bb :-9--9--9--9--9--9-10-10-10-10-10-10|------------|------------|
F  :-----------------------------------|4-1-0-5-1-0-|4-1-0-5-1-0-|
C  :-----------------------------------|4-1-0-5-1-0-|4-1-0-5-1-0-|

C  :-----------------------------------|------------|------------|
G  :-----------------------------------|------------|------------|
Eb :-----------------------------------|------------|------------|
Bb :12-12-12-12-12-12-14-14-14-14-14-14|------------|------------|
F  :-----------------------------------|4-1-0-5-1-0-|4-1-0-5-1-0-|
C  :-----------------------------------|4-1-0-5-1-0-|4-1-0-5-1-0-|

============================================================================

                                                                     
C  :-----------------------------|-----------------------------------|
G  :-----------------------------|-----------------------------------|
Eb :-----------------------------|-----------------------------------|
Bb :-----------------------------|10-10-10-10-10-10-12-12-12-12-12-12|
F  :-------------7--7--7--7--7--7|-----------------------------------|
C  :0-0-0-0-0-0------------------|-----------------------------------|

C  :-----------------------------|-----------------------------------|
G  :-----------------------------|-----------------------------------|
Eb :-----------------------------|-----------------------------------|
Bb :-----------------------------|14-14-14-14-14-14-16-16-16-16-16-16|
F  :------------10-10-10-10-10-10|-----------------------------------|
C  :0-0-0-0-0-0------------------|-----------------------------------|

============================================================================

                                                           
C  :------------|------------|-----------------------------|
G  :------------|------------|-----------------------------|
Eb :------------|------------|-----------------------------|
Bb :------------|------------|-----------------------------|
F  :4-1-0-5-1-0-|4-1-0-5-1-0-|-------------7--7--7--7--7--7|
C  :4-1-0-5-1-0-|4-1-0-5-1-0-|0-0-0-0-0-0------------------|

C  :------------|------------|-----------------------------|
G  :------------|------------|-----------------------------|
Eb :------------|------------|-----------------------------|
Bb :------------|------------|-----------------------------|
F  :4-1-0-5-1-0-|4-1-0-5-1-0-|------------10-10-10-10-10-10|
C  :4-1-0-5-1-0-|4-1-0-5-1-0-|0-0-0-0-0-0------------------|

============================================================================

                                                                 
C  :-----------------------------------|------------|------------|
G  :-----------------------------------|------------|------------|
Eb :-----------------------------------|------------|------------|
Bb :-9--9--9--9--9--9-10-10-10-10-10-10|------------|------------|
F  :-----------------------------------|4-1-0-5-1-0-|4-1-0-5-1-0-|
C  :-----------------------------------|4-1-0-5-1-0-|4-1-0-5-1-0-|

C  :-----------------------------------|------------|------------|
G  :-----------------------------------|------------|------------|
Eb :-----------------------------------|------------|------------|
Bb :12-12-12-12-12-12-14-14-14-14-14-14|------------|------------|
F  :-----------------------------------|4-1-0-5-1-0-|4-1-0-5-1-0-|
C  :-----------------------------------|4-1-0-5-1-0-|4-1-0-5-1-0-|

============================================================================

                                                                     
C  :-----------------------------|-----------------------------------|
G  :-----------------------------|-----------------------------------|
Eb :-----------------------------|-----------------------------------|
Bb :-----------------------------|10-10-10-10-10-10-12-12-12-12-12-12|
F  :-------------7--7--7--7--7--7|-----------------------------------|
C  :0-0-0-0-0-0------------------|-----------------------------------|

C  :-----------------------------|-----------------------------------|
G  :-----------------------------|-----------------------------------|
Eb :-----------------------------|-----------------------------------|
Bb :-----------------------------|14-14-14-14-14-14-16-16-16-16-16-16|
F  :------------10-10-10-10-10-10|-----------------------------------|
C  :0-0-0-0-0-0------------------|-----------------------------------|

============================================================================

                                                               
C  :------------|------------|----------------|----------------|
G  :------------|------------|----------------|----------------|
Eb :------------|------------|----------------|----------------|
Bb :------------|------------|----------------|----------------|
F  :4-1-0-5-1-0-|4-1-0-5-1-0-|4-4-1-0-5-5-1-0-|4-4-1-0-5-5-1-0-|
C  :4-1-0-5-1-0-|4-1-0-5-1-0-|4-4-1-0-5-5-1-0-|4-4-1-0-5-5-1-0-|

C  :------------|------------|----------------|----------------|
G  :------------|------------|----------------|----------------|
Eb :------------|------------|----------------|----------------|
Bb :------------|------------|----------------|----------------|
F  :4-1-0-5-1-0-|4-1-0-5-1-0-|4-4-1-0-5-5-1-0-|4-4-1-0-5-5-1-0-|
C  :4-1-0-5-1-0-|4-1-0-5-1-0-|4-4-1-0-5-5-1-0-|4-4-1-0-5-5-1-0-|

============================================================================

                
C  :------------|
G  :------------|
Eb :------------|
Bb :------------|
F  :2---*-------|
C  :0---*-------|

C  :------------|
G  :------------|
Eb :------------|
Bb :------------|
F  :2---*-------|
C  :0---*-------|

============================================================================
Добавлено: 14.10.2013
Другие материалы по этой песне:

Страница создана 08.03.2012
http://primanota.ru/through-the-eyes-of-the-dead/beneath-dying-skies-chords.htm
Привет, Гость.
Предлагаем пройти революционный курс по гитаре.
Подарок от PrimaNota.Ru, забирай!