PrimaNota.ru - самый крупный в мире бесплатный архив песенных текстов, аккордов, табулатур и нот


Through The Eyes Of The Dead - Autumn Tint Of Gold - текст песни, таба, видео

Регистрация Запомнить меня
Войти через:  Facebook Google Twitter Vk Yandex Mail.ru

Through The Eyes Of The Dead - Autumn Tint Of Gold - текст песни, таба, видео

Печатать
Просмотров: 64
Band – Through the Eyes of the Dead
Song – Autumn Tint of Gold
Album – Scars of Ages
Tabbed By – Bryan H. and Ty B.

I think only one guitar plays in this song.
If you have any Questions or Comments – OTTERS592@aol.com
Please Rate...

Tuning
C|F|A#|D#|G|C


“ – Tremolo picking
{} - Harmonic


||----------------------------------||
||o--------------------------------o||
||----------------------------------||
||----------------------------------||
||o-----6---6---6---3---3---5---5--o||
||--0-0---0---0---0---0---0---0-----||
                                   x3

|------------------------------------|
|------------------------------------|
|------------------------------------|
|------------------------------------|
|-----6---6---6---10-6---11-7---10-6-|
|--0-0---0---0---0------0------0-----|

||----------------------------------------------||
||o--------------------------------------------o||
||----------------------------------------------||
||-----------------------------------------5”---||
||o---6”-5”-3”-2”-3”-5”-6”—-6”-5”-3”-5”-6”---6”o||
||-4”---------------------4”--------------------||


||-----------------------------------------------|
||o----------------------------------------------|
||-----------------------------------------------|
||-----------------------------------------------|
||o2”--2--------2”—2”-2---2”--2--------2”-2------|
||-0”--0--------0”—0”-0---0”--0--------0”-0------|


||---------------------------------------------------||
||o-------------------------------------------------o||
||---------------------------------------------------||
||---------------------------------------------------||
||o2”--2--------2”—2”-2---2”--2---10-6---11-7---10-6o||
||-0”--0--------0”—0”-0---0”--0--------0------0------||


||---------------------------------|
||o--------------------------------|
||---------------------------------|
||-9-------9-------9-------9-------|
||o7-------7-------7-------7-------|
||---0-0-0---0-0-0---0-0-0---0-0-0-|


|-------------------------------------||
|------------------------------------o||
|-------------------------------------||
|-------------------------------------||
|-10-------10-------10-------10------o||
|-8--0-0-0-8--0-0-0-8--0-0-0-8--0-0-0-||


||-----------------------------------------||
||o---------------------------------------o||
||-----------------------------------------||
||----------------5-5--------5”----4-4-----||
||o----------2-2------3”---------------5-5o||
||-0”--------------------------------------||
                                           x4

||-------------------------------||
||o-----------------------------o||
||-------------------------------||
||-------------------------------||
||o2--2--2-2-2--2-2-2--2-2-2--2-o||
||-0--0--0-0-0--0-0-0--0-0-0--0--||
 /\                               x3
  \________________________
                           \
|-----------------------||  \
|----------------------o||  | 
|-----------------------||  | 
|-----------------------||  |
|-2-2-5--4--3--6--5--4-o||  |
|-0-0-3--2--1—-4--3--2--||  |
Repeat to...  ______________/

|---||--------------------------||
|---||o------------------------o||
|---||--------------------------||
|---||--------------------------||
|-2-||o-5-4-3-6-5-4-5-4-3-6-5-4o||
|-0-||--3-2-1-4-3-2-3-2-1-4-3-2-||


||--------------------------||
||o------------------------o||
||----------{4}---------{4}-||
||--------------------------||
||o------------------------o||
||-3-2-1-4-3---3-2-1-4-3----||


||--------------------------------------|
||o-------------------------------------|
||--------------------------------------|
||----------------------------7---------|
||o--7-9-10---10-9-7---7-9-10---10-9----|
||-0--------8--------0---------------10-|



|--------------------------------------||
|-------------------------------------o||
|--------------------------------------||
|----------------------------10-9------||
|---7-9-10---10-9-7---7-9-10------10-9o||
|-0--------8--------0------------------||
                                       x4

||-------------------------------------------||
||o-----------------------------------------o||
||-------------------------------------------||
||------------3-3----------------------------||
||o2--4--3--2-1-1-2--4--3--2--4--3--2----2--o||
||-0--2--1--0-----0--2--1--0--2--1--0----0---||
                                             x4

||----------------------------------------------|
||o---------------------------------------------|
||----------------------------------------------|
||---------3------------------------------------|
||o2-4-3-2-1-2-4-3-2-4-3-2----2-2-2---2-2-2-----|
||-0-2-1-0---0-2-1-0-2-1-0----0-0-0---0-0-0-----|


|----------------------------------------------------||
|---------------------------------------------------o||
|----------------------------------------------------||
|---------3------------------------------------------||
|-2-4-3-2-1-2-4-3-2-4-3-2----2-2-2---2-2-2----------o||
|-0-2-1-0---0-2-1-0-2-1-0----0-0-0---0-0-0---0-0-0---||
Добавлено: 28.06.2013
Другие материалы по этой песне:

Страница создана 16.05.2012
http://primanota.ru/through-the-eyes-of-the-dead/autumn-tint-of-gold-chords.htm
Привет, Гость.
Предлагаем пройти революционный курс по гитаре.
Подарок от PrimaNota.Ru, забирай!