PrimaNota.ru - самый крупный в мире бесплатный архив песенных текстов, аккордов, табулатур и нот


Through My Eyes - When I Was Your Age - бас-таба, видео

Регистрация Запомнить меня
Войти через:  Facebook Google Twitter Vk Yandex Mail.ru

Through My Eyes - When I Was Your Age - бас-таба, видео

Печатать
Просмотров: 59
G----------------------------------------------------|
D#---------------------------------------------------|
A#---------------------------------------------------|
F----------------------------------------------------|
A#-0-0001\44--0-0001\445--0-0001\44585741------------| (4x)

G----------------------------------------------------|
D#---------------------------------------------------|
A#---------------------------------------------------|
F--------------------------58------------585-141-----|
A#-00000003^--000000003^-0----00000003^-0---0---0----| (4x)

G----------------------------------------------------|
D#---------------------------------------------------|
A#---------------------------------------------------| You can figure out the
F----------------------------585---141---------------| pattern and pauses
A#-00000-00000-00000-00000-0-----0-----0-------------| (4x)

G--------------------------|
D#-0h2h3-------------------|
A#------t4t5---------------|
F--------------------------|
A#-----------00000000------| (x2)

G------------------------------------|
D#-(12)h(14)h(15)--------------------|
A#---------------t(16)t(17)----------|
F------------------------------------|
A#--------------------------0000000--|0(x2)

G-----------------------------------------------------------------------|
D#-7777--7777--77--8888--5555--55--7777--7777--77--5555--14141414--1414-|
A#-0000--0000--00--0000--0000--00--0000--0000--00--0000--0000--00-------|
F-----------------------------------------------------------------------|
A#----------------------------------------------------------------------|

The 14's are fourteens

G---------------------------------|
D#--------------------------------|
A#--------------------------------|
F---------------------------------|
A#-000000---(12)/-----------------|

G------------------------------------------|
D#-----------------------------------------|
A#-----------------------------------------|
F------------------------------------------|
A#-5^-00-5^-00-5^-1410-5^-00-5^-00-5^-3210-| (4x)

G-----------------------------------------------|
D#----------------------------------------------|
A#----------------------------------------------|
F-----------------------------------------------|
A#-3210-3210-0-000-000-3210-3210-0-000-(11)^-0--|(4x)

G---------------------------------------------------------------|
D#--------------------------------------------------------------|
A#--------------------------------------------------------------| The riff
F---------------------------------------------------------------| continues
A#-000-000-0-0-0-0-000-0-0-0-0-0-000-000-0-0-0-0-000-0-0-0-0-0--|

G-------------------------------------------------------------|
D#------------------------------------------------------------|
A#------------------------------------------------------------| still
F-111-111-1-1-1-1-111-1-1-1-1-1-111-111-1-1-1-1-111-1-1-1-1-1-| continues
A#------------------------------------------------------------|

G-------------------------------------------------------------| whole riff
D#------------------------------------------------------------| goes 2x
A#------------------------------------------------------------|
F-000-000-0-0-0-0-000-0-0-0-0-0-000-000-0-0-0-0-000-0-0-0-0-0-|
A#------------------------------------------------------------|

G------------------------|
D#-----------------------|
A#-----------------------|
F-11111111*--00000000*---|
A#--------------------0--|

G---------------------------------------|
D#--------------------------------------|
A#--------------------------------------|
F---------------------------------------|
A#-000000-00-xx-000-000000-00-xx-1^1^1^-|

G--------------------------------------|
D#-------------------------------------|
A#-------------------------------------|
F---------55--------------55-----------|
A#-000000---xx-000-000000---xx-1^1^1^--|

x=muted string hits
^=bend
\=slide up
/=slide down
h=hammer on
t=tap
()=clarifying the fret
Добавлено: 20.10.2013
Вам также может быть интересно:
Другие материалы по этой песне:
  • Аккорды и текст

Страница создана 20.10.2013
http://primanota.ru/through-my-eyes/when-i-was-your-age-chords.htm
Привет, Гость.
Предлагаем пройти революционный курс по гитаре.
Подарок от PrimaNota.Ru, забирай!