PrimaNota.ru - самый крупный в мире бесплатный архив песенных текстов, аккордов, табулатур и нот


Through My Eyes - Dwi - бас-таба, видео

Регистрация Запомнить меня
Войти через:  Facebook Google Twitter Vk Yandex Mail.ru

Through My Eyes - Dwi - бас-таба, видео

Печатать
Просмотров: 73
Уроки эстрадного вокала в Санкт-Петербурге
G-------------------------------------|you can figure out the patten
D#------------------------------------|
A#------------------------------------|
F-------------------------------------|
A#-000-000-000-000-000-000-00-00-00---| (x8)

G--------------------------------------|
D#-------------------------------------|
A#-------------------------------------|
F-------------------------------555444-|
A#--5555888844448888111144440000-------| (x2)

G------------------------------------------------------------------|
D#-----------------------------------------------------------------|
A#-----------------------------------------------------------------|
F----------------------------------------------------------555-444-|
A#--5-55-55-8-88-88-4-44-44-8-88-88-1-11-11-4-44-44-0-00-00--------| (x2)

G---------------------------------------------------------------|
D#--------------------------------------------------------------|
A#--------------------------------------------------------------|
F---------------------------------------------------------------|
A#-0-00-00-0-00-00-0-00-00-111-111-0-00-00-0-00-00-0-00-00-4^4--| (x4)


G--------------------|
D#------(10)(10)(10)-|
A#-------------------|
F--------8-8-8-------|
A#-0-0-0-------------| (x1)

G-------------------------------------------------------------|
D#------------------------------------------------------------|
A#------------------------------------------33333333-22222222-|
F------555555555-88888888-333333333-11111111------------------|
A#-000--------------------------------------------------------| (x1)

G-------------------------------------------------------|
D#---101010101010101010101010--101010101010101010101010-| riff
A#------------------------------------------------------| continues
F-----8-8-8-8-8-8-8-8-8-8-8-8--8-8-8-8-8-8-8-8-8-8-8-8--|
A#-000----------------000-------------------------------|

G-----------------------------------------------------|
D#-171717171717171717171717--121212121212121212121212-|
A#----------------------------------------------------|
F--151515151515151515151515--101010101010101010101010-|
A#----------------------------------------------------| (x1)

G------------------------------|
D#-----------------------------|
A#-----------------------------|
F------------------------------|
A#-000-000---000---000-000-000-| (x4)

G----------------------------------------------|
D#---------------------------------------------|
A#---------------------------------------------|
F----------------------------------------------|
A#-0000000000-----12*-----0000000000------12*--| (x4)

G------------------------------------------------------|
D#---------------------0--------------------0----------|
A#----------------0h6h8----------------0h6h8----8---7--|
F------------0h6h9----------------0h6h9--------5-5-5-5-|
A#-000-00-00-------------000-00-00------------5---4----| (x4)

G------------------------------------------|
D#-----------------------------------------|
A#---8----8----8---8-8---7----7----7---7-7-|
F---5-5--5-5--5-5-------5-5--5-5--5-5------|
A#-5----5----5----5-5--4----4----4----4-4--| (x4)

G--------------------------------------------------------------------|
D#-------------------------------------------------------------------| riff
A#-------------------------------------------------------------------| continues
F--10101010101010101010101010101010-10h12p10-9999999999999999-9h10p9-|
A#-------------------------------------------------------------------|

G------------------------------------------|
D#-----------------------------------------|
A#-----------------------------------------|
F--6666666666666666-6h9p6-5555555566669999-|
A#-----------------------------------------| (x4)



h- hammer on
p- pull off
*-harmonic
^-bend
()-clarifying frets
Добавлено: 06.11.2013
Вам также может быть интересно:
Другие материалы по этой песне:
  • Аккорды и текст

Страница создана 06.11.2013
http://primanota.ru/through-my-eyes/dwi-chords.htm
Привет, Гость.
Предлагаем пройти революционный курс по гитаре.
Подарок от PrimaNota.Ru, забирай!