PrimaNota.ru - самый крупный в мире бесплатный архив песенных текстов, аккордов, табулатур и нот


Thrice - Phoenix Ignition - текст песни, таба, бас-таба, видео

Регистрация Запомнить меня
Войти через:  Facebook Google Twitter Vk Yandex Mail.ru

Thrice - Phoenix Ignition - текст песни, таба, бас-таба, видео

Печатать
Просмотров: 151
Intro1 
(Acoustic Guitar) 
e|----3----3----3----3----2----3----|----2~~~~----| 
B|----3----1----3----0----0----1----|----3~~~~----| 
G|----0----0----0----0----1----0----|----2~~~~----| 
D|----0----2----0----0----2----2----|----0~~~~----| 
A|----2----3----2----0----2----3----|-------------| 
E|----3---------3----2----0---------|-------------| 

Intro2 
(Electric w/ Distortion and Gain) 
e|-----------------------------------------------------------------------------------| 
B|-----------------------------------------------------------------------------------| 
G|-----------------------------------------------------------------------------------| 
D|-----%---------4--2-2--5-5-5--4--5-5-----------------------------------------------| 
A|--2--%--2-2-2----------3-3-3----------5-5-5-5-5-5--5-5-5--5-5-5--2-2-2-2-2--2-2-2--| 
E|--0--%--0-0-0-------------------------3-3-3-3-3-3--2-2-2--2-2-2--0-0-0-0-0--0-0-0--| 
p.m p.m ...p.m... 

e|-------------------------------------------------------------------------------------| 
B|-------------------------------------------------------------------------------------| 
G|-------------------------------------------------------------------------------------| 
D|--5-5-5--2--4-4---------4--2-2----------------------2-2--4-4--5--4--2-2--4--5--4--2--| 
A|--3-3-3----------5-5-5----------5-5-5-5-5-5--2~~~~-----------------------------------| 
E|-----------------3-3-3----------2-2-2-2-2-2--0~~~~-----------------------------------| 
p.m p.m 

Verse1 
e|-------------------------------------------------------------------------------------------| 
B|---------------------------------------------------------------------------------7---------| 
G|---------------------------------------------------------------------------7--------7-----7| 
D|---------9-9-9-9-9--9--7-7-7-7-7--7-7-------------------9-9-9-9-9-9---7-7-----7--------7---| 
A|--2~~~~--7-7-7-7-7--7--5-5-5-5-5--5-5--2-2-2-2-2-2-2-2--7-7-7-7-7-7------------------------| 
E|--0~~~~--------------------------------0-0-0-0-0-0-0-0-------------------------------------| 
...p.m... ...p.m... 

e|-----------------------------------------------------------------------------------------| 
B|-----------------------------------------------------------------------------------------| 
G|------------------------------------12---------------------------------------------------| 
D|-------------------9-9-9-9-9-9-9-9----------------------9-9-9-9-9-9-----5----------------| 
A|--2-2-2-2-2-2-2-2--7-7-7-7-7-7-7-7--10--2-2-2-2-2-2-2-2-7-7-7-7-7-7--3-----3p2h3p2-------| 
E|--0-0-0-0-0-0-0-0-----------------------0-0-0-0-0-0-0-0-----------------------------3-2--| 

e|--------------------------------------------------------------------------------| 
B|--------------------------------------------------------------------------------| 
G|-------------------11-11-11-11--------------------------------------------------| 
D|--------------------------------9-9-9--9-9-9--5-5-5--7-7-7--7-7-7---------------| 
A|--2-2-2-2-2-2-2-2---9--9--9--9--7-7-7--7-7-7--3-3-3--5-5-5--5-5-5--5--4--2-2-2--| 
E|--0-0-0-0-0-0-0-0--------------------------------------------------3--2--0-0-0--| 
.p.m. .p.m. 

e|---------------------------------------------| 
B|---------------------------------------------| 
G|---------------------------------------------| 
D|-----------9-9-9--5-5-5--12-12-12--12-12-12--| 
A|--2-2-2-2--7-7-7--3-3-3--10-10-10--10-10-10--| 
E|--0-0-0-0------------------------------------| 
..p.m.. ...p.m... 

e|-------------------------------------------------------| 
B|-------------------------------------------------------| 
G|----------------------9-9-9-9-9-9-9-9--11-11-11-11-11--| 
D|--11-11-11--12-12-12-----------------------------------| 
A|---9--9--9--10-10-10--7-7-7-7-7-7-7-7---9--9--9--9--9--| 
E|-------------------------------------------------------| 
...p.m... 

e|------------------------------------------------------------------------------------------| 
B|------------------------------------------------------------------------------------------| 
G|------------------------------------------------------------------------------------------| 
D|--------4--2-2--5-5-5--4--5-5----------------------------------------------5-5-5--4--5-5--| 
A|--2-2-2---------3-3-3----------5-5-5-5-5-5--5-5-5-5-5-5--2-2-2-2-2--2-2-2--3-3-3----------| 
E|--0-0-0------------------------3-3-3-3-3-3--2-2-2-2-2-2--0-0-0-0-0--0-0-0-----------------| 
.p.m. .p.m. ...p.m... 

e|-----------------------------------------------| 
B|-----------------------------------------------| 
G|-----------------------------------0h2--4p2p0--| 
D|-----------------------------------------------| 
A|--5-5-5-5-5-5--5-5-5-5-5-5--2~~~~--------------| 
E|--3-3-3-3-3-3--2-2-2-2-2-2--0~~~~--------------| 

Verse2 
e|----------------------------------------------------------------------------------| 
B|----------------------------------------------------------------------------------| 
G|--12-12-12-12-12--11-11-11-11-11-11--16-16-16-16-16--14-14-14-14-14--12-12-12-12--| 
D|----------------------------------------------------------------------------------| 
A|--10-10-10-10-10---9--9--9--9--9--9--14-14-14-14-14--12-12-12-12-12--10-10-10-10--| 
E|----------------------------------------------------------------------------------| 

e|------------------------------------------------------------------------------------| 
B|------------------------------------------------------------------------------------| 
G|--12-12-12-12-12-12--14-14-14--11-11-11-11-11--9-9-9--9-9-9-9--9-9-9--5-5-5--7-7-7--| 
D|------------------------------------------------------------------------------------| 
A|--10-10-10-10-10-10--12-12-12---9--9--9--9--9--7-7-7--7-7-7-7--7-7-7--3-3-3--5-5-5--| 
E|------------------------------------------------------------------------------------| 
..p.m.. 

e|----------------------------------------------------------------------------------| 
B|----------------------------------------------------------------------------------| 
G|--7-7-7-7--7-7-7---------------9-9-9--5-5-5--12-12-12-12-12-12--11-11-11--12--11--| 
D|----------------------------------------------------------------------------------| 
A|--5-5-5-5--5-5-5--5--4--2-2-2--7-7-7--3-3-3--10-10-10-10-10-10---9--9--9--10---9--| 
E|------------------3--2--0-0-0-----------------------------------------------------| 
..p.m.. .......p.m....... 

e|--------------------------------------------------| 
B|--------------------------------------------------| 
G|--9-9-9-9-9-9-9--11-11-11-11-11-11-11-------------| 
D|--------------------------------------------------| 
A|--7-7-7-7-7-7-7---9--9--9--9--9--9--9--2~~~~~~~~--| 
E|---------------------------------------0~~~~~~~~--| 

Bridge 
e|--------------------------------------------------------------------------| 
B|--------------------------------------------------------------------------| 
G|--------------------------------------------------------------------------| 
D|-----------5-5-5-5-----------5-5-5-5-----------4-4-4-4-----------4-4-4-4--| 
A|--7-7-7-7-----------7-7-7-7-----------6-6-6-6-----------6-6-6-6-----------| 
E|--------------------------------------------------------------------------| 

e|-----------------------------------------------------------------------------------| 
B|-----------------------------------------------------------------------------------| 
G|-----------------------------------------------------------------------------------| 
D|-----------7-7-7-7-----------7-7-7-7-----------5-5-5-5-----------4-4-4-4-----------| 
A|--9-9-9-9-----------9-9-9-9-----------7-7-7-7-----------5-5-5-5-----------3-3-3-3--| 
E|-----------------------------------------------------------------------------------| 

e|-----------------------------------------------------------------------------------| 
B|-----------------------------------------------------------------------------------| 
G|--------------------------------------4-4-4-4----------4-4-4-4-----------5-5-5-5---| 
D|--2-2-2-2-----------2-2-2-2--5-5-5-5-----------5-5-5-5----------7-7-7-7------------| 
A|-----------3-3-3-3-----------------------------------------------------------------| 
E|-----------------------------------------------------------------------------------| 

e|-------------------------------------------------------------| 
B|-------------------------------------------------------------| 
G|-----------5-5-5-5-------8-------9-------11-------9-------8--| 
D|--7-7-7-7-----------9-9-----9-9-----9-9------9-9-----9-9-----| 
A|-------------------------------------------------------------| 
E|-------------------------------------------------------------| 

Outro 
e|---------------------------------------------------| 
B|---------------------------------------------------| 
G|---------------------------------------------------| 
D|---------------------------------------------------| 
A|--5-5--2-2-2-2--2-2-2-2--2----2-2-2-2--2-2-2-2--2--| 
E|--3-3--0-0-0-0--0-0-0-0--0----0-0-0-0--0-0-0-0--0--| 
..p.m.. ..p.m.. ..p.m.. ..p.m.. 

e|--------------------------------------------------------------------| 
B|--------------------------------------------------------------------| 
G|--4-4--2-2--5-5----4-4--2-2--5-5----4-4--2-2--5-5----4-4--2-2--5-5--| 
D|--------------------------------------------------------------------| 
A|--2-2--2-2--2-2----2-2--2-2--2-2----2-2--2-2--2-2----2-2--2-2--2-2--| 
E|--------------------------------------------------------------------| 

e|----------------------------------------------------------------------| 
B|----------------------------------------------------------------------| 
G|----------------------------------------------------------------------| 
D|----------------------------------------------------------------------| 
A|--2-2-2-2-2-2-2--2h3--2p0--2h3--2p0--2-2-2-2-2-2-2--2h3--2p0--2h3--5--| 
E|--0-0-0-0-0-0-0----------------------0-0-0-0-0-0-0--------------------| 
p.m .p.m. p.m .p.m. 

e|----------------------------------------------------------------------| 
B|----------------------------------------------------------------------| 
G|----------------------------------------------------------------------| 
D|----------------------------------------------------------------------| 
A|--2-2-2-2-2-2-2--2h3--2p0--2h3--2p0--2-2-2-2-2-2-2--2h3--2p0--2h3--5--| 
E|--0-0-0-0-0-0-0----------------------0-0-0-0-0-0-0--------------------| 
p.m .p.m. p.m .p.m. 

e|-----------------------------------------------------------------| 
B|-----------------------------------------------------------------| 
G|-----------------2h4-2p0-2h4-2p0-----------------2h4-2p0-2h4--5--| 
D|-----------------------------------------------------------------| 
A|--2-2-2-2-2-2-2-------------------2-2-2-2-2-2-2------------------| 
E|--0-0-0-0-0-0-0-------------------0-0-0-0-0-0-0------------------| 
.....p.m..... .....p.m..... 

e|-----------------------------------------------------------------------| 
B|-----------------------------------------------------------------------| 
G|-------------2h4--2p0--2h4--2p0----------------------------------------| 
D|------------------------------------------------5-5-5-5--4-4-----------| 
A|--2-2-2-2-2----------------------2-2-2-2-2-2-2--3-3-3-3--2-2--5--4--2--| 
E|--0-0-0-0-0----------------------0-0-0-0-0-0-0----------------3--2--0--| 

i am still working on other thrice songs right now. email me with any
suggestions/corrections at: nofx2002@cheatcc.com
have a nice day, and support your local milkman.
Добавлено: 04.06.2012
Другие материалы по этой песне:

Страница создана 22.03.2012
http://primanota.ru/thrice/phoenix-ignition-chords.htm
Привет, Гость.
Предлагаем пройти революционный курс по гитаре.
Подарок от PrimaNota.Ru, забирай!