PrimaNota.ru - самый крупный в мире бесплатный архив песенных текстов, аккордов, табулатур и нот


Thrice - Blood Clots And Black Holes - аккорды и текст, таба, видео

Регистрация Запомнить меня
Войти через:  Facebook Google Twitter Vk Yandex Mail.ru

Thrice - Blood Clots And Black Holes - аккорды и текст, таба, видео

Печатать
Просмотров: 132
Blood Clots And Black Holes
Thrice
Intro, pt. 1 (x4)
-------------------------------------------------------------------------------
-------------------------------------------------------------------------------
-------------------------------------------------------------------------------
-------------------------------------------------------------------------------
-----8-0-7-0-7-8-10-0-8-0-7h8p7p0-5-7-----8-0-7-0-7-8-----8-7---8-7------------
-0h7----------------------------------0h7-------------0h7-----6----------------

Intro, pt. 2
-------------------------------------------------------------------------------
-------------------------------------------------------------------------------
-------------------------------------------------------------------------------
-0-000-000-000-000-000-888-0-000-000-000-000-000-101010-0----------------------
-0-000-000-000-000-000-888-0-000-000-000-000-000-101010-0----------------------
-0-000-000-000-000-000-888-0-000-000-000-000-000-101010-0----------------------
   xxx xxx xxx xxx xxx       xxx xxx xxx xxx xxx

-------------------------------------------------------------------------------
-------------------------------------------------------------------------------
-------------------------------------------------------------------------------
-000-000-000-000-000-8-7-8-10-101010-101010-101010-7-7777777-------------------
-000-000-000-000-000-8-7-8-10-101010-101010-101010-7-7777777-------------------
-000-000-000-000-000-8-7-8-10-101010-101010-101010-7-7777777-------------------
 xxx xxx xxx xxx xxx           x x x  x x x  x x x

Verse (x4)
-------------------------------------------------------------------------------
-------------------------------------------------------------------------------
-------------------------------------------------------------------------------
-------------------------------------------------------------------------------
-----8-0-7-0-7-8-10-0-8-0-7h8p7p0-5-7-----8-0-7-0-7-8-----8-7---8-7------------
-7h8----------------------------------7h8-------------7h8-----8----------------

Chorus
-------------------------------------------------------------------------------
-------------------------------------------------------------------------------
-15-9-10-12-10-9-15-9-10-12-10-9-14--------14--------14--------14----14--------
-------------------------------------------------------------------------------
-13-7--8-10--8-7-13-7--8-10--8-7-12-000000-12-000000-12-000000-12-00-12--------
------------------------------------000000----000000----000000----00-----------
                                    xxxxxx    xxxxxx    xxxxxx    xx

-------------------------------------------------------------------------------
-------------------------------------------------------------------------------
-14-9-10-12-10-9-15-9-10-12-10-9-15-9-10-12-10-9-------------------------------
-------------------------------------------------------------------------------
-12-7--8-10--8-7-13-7--8-10--8-7-13-7--8-10--8-7-------------------------------
-------------------------------------------------------------------------------

Bridge, pt. 1 (fill 1)
-------------------------------------------------------------------------------
-------------------------------------------------------------------------------
-------------------------------------------------------------------------------
-------------------------------------------------------------------------------
-----8-----10-----8-----12-----8-----10-0h10-8h10p87/87----------------------
-007---007----007---007----007---007----------------------8-10-----------------
 xxx   xxx    xxx   xxx    xxx   xxx

Bridge, pt. 2 (x7)
-------------------------------------------------------------------------------
-------------------------------------------------------------------------------
-------------------------------------------------------------------------------
-------------------------------------------------------------------------------
-----8-----10-----8-----12-----------------------------------------------------
-007---007----007---007--------------------------------------------------------
 xxx   xxx    xxx   xxx

Bridge, pt. 3 (fill 2)
-------------------------------------------------------------------------------
-------------------------------------------------------------------------------
-------------------------------------------------------------------------------
-----------------------10h12p10------------------------------------------------
-----8-----10-----8h10---------------------------------------------------------
-007---007----0h7--------------------------------------------------------------
 xxx   xxx

Chorus

Outro, pt. 1 (x2)
-------------------------------------------------------------------------------
-------------------------------------------------------------------------------
-------------------------------------------------------------------------------
-------------------------------------------------------------------------------
-----8-0-7-0-7-8-10-0-8-0-7h8p7p0-5-7-----8-0-7-0-7-8-----8-7------------------
-0h7----------------------------------0h7-------------0h7----------------------

Outro, pt. 2 (x2)
-------------------------------------------------------------------------------
-------------------------------------------------------------------------------
-------------------------------------------------------------------------------
-------------------------------------------------------------------------------
-----8-0-7-0-7-8-10-0-8-0-7h8p7p0-5-7-----8-0-7-0-7-8-----8-7---8-7------------
-0h7----------------------------------0h7-------------0h7-----6----------------

Outro, pt. 3 (x4)                       -slight variation on last part of song-
-------------------------------------------|-----------------------------------
-------------------------------------------|-----------------------------------
-14--------14--------14--------14----14/15-|------14------14/15-14-------------
-------------------------------------------|-----------------------------------
-12-000000-12-000000-12-000000-12-00-12/13-|-0000-12-0000-12/13-12-------------
----000000----000000----000000----00-------|-0000----0000----------------------
    xxxxxx    xxxxxx    xxxxxx    xx         xxxx    xxxx
Добавлено: 16.04.2012
Другие материалы по этой песне:

Страница создана 11.04.2012
http://primanota.ru/thrice/blood-clots-and-black-holes-chords.htm
Привет, Гость.
Предлагаем пройти революционный курс по гитаре.
Подарок от PrimaNota.Ru, забирай!