PrimaNota.ru - самый крупный в мире бесплатный архив песенных текстов, аккордов, табулатур и нот


Threshold - Watchtower On The Moon - таба, видео

Регистрация Запомнить меня
Войти через:  Facebook Google Twitter Vk Yandex Mail.ru

Threshold - Watchtower On The Moon - таба, видео

Печатать
Просмотров: 97
Watchtower on the Moon - Threshold (2014)
No solos sorry :(

Tuned Drop C#

pm = palm mute "."
ms = mute strings
/ = slide down from previous note(/x)

Main Riff

D#|-----------------|-----------------|-----------------------------|---------|    ( |---------| )
A#|-----------------|-----------------|-----------------------------|---------|    ( |---------| )
F#|-----------------|-----------------|-----------------------------|---------|    ( |---------| )
C#|-----------------|-----------------|-----------------------------|---------|    ( |---------| )
G#|-----------------|-----------------|-----------------------------|---------|    ( |---------| )
C#|--0--1-4--0-3-6--|--0--1-4--0-3-6--|--0--1-4--0-3-6--3-6/9-0-5-8-|-0-3-6---|    ( |-0-3-6-1-| )

                                                             x4         x3           Play this the 4th time


Verse

First time    2nd - 4th time
|----------|  |-------------| |------------------|------------------|---------|-----------------|
|----------|  |-------------| |------------------|------------------|---------|-----------------|
|----------|  |-------------| |------------------|------------------|---------|-----------------|
|-0-----1--|  |-0-------1---| |-------0-------1--|-------0-------1--|-------0-|----3--1-3-1-0---|
|-0-----1--|  |-0-------1---| |-------0-------1--|-------0-------1--|-------0-|----3--1-3-1-0---|
|-0--0--1--|  |-0--0-0--1---| |--0-0--0--0-0--1--|--0-0--0--0-0--1--|--0-0--0-|-0--3--1-3-1-0---|   x4
pm   .             . .           . .     . .        . .     . .        . .      .
                ^                     ^       ^          ^       ^          ^
On the 3rd and 4th times you play this riff, the chords indicated with a "^" should ring 
out 2x as long

Bridge

|-------------------------|------------------------------------|
|-------------------------|------------------------------------|
|-------------------------|------------------------------------|
|--555---666---555---333--|------------------------------------|
|--555---666---555---333--|------------------------------------|
|--555---666---555---333--|---6-5-3-5-6-5-3-5----1-3-4---0-1---|
ms    x     x     x     x

Chorus




|---------------------------------|-----------------------------|
|---------------------------------|-----------------------------|
|---------------------------------|-----------------------------|
|--0--3-/5~--/7-/9~--999--10-10---|--0--2-/3~--7-8-7--3-5-7-----|
|--0--3-/5~--/7-/9~--999--10-10---|--0--2-/3~--7-8-7--3-5-7-----|
|--0--3-/5~--/7-/9~--999--10-10---|--0--2-/3~--7-8-7--3-5-7-----|

Bridge to Solos

|---------------------------------|
|---------------------------------|
|---------------------------------|
|---------------------------------|
|-7-9-5--10-12-8--7-9-5--5-7-4----|
|---------------------------------|


Rythm During Solos

|-------------------------------|-------------------------------|
|-------------------------------|-------------------------------|
|-------------------------------|-------------------------------|
|-2--0-2-3-2-0--2--0-2-3-0--5---|-2--0-2-3-2-0--2--0-2-3-0--0---|
|-2--0-2-3-2-0--2--0-2-3-0--5---|-2--0-2-3-2-0--2--0-2-3-0--0---|
|-2--0-2-3-2-0--2--0-2-3-0--5---|-2--0-2-3-2-0--2--0-2-3-0--0---|
pm   . . . . .     . . . .           . . . . .     . . . .

That's all I know. Only been playing for a few months so not yet comfortable enough to 
do solos, which aren't that difficult sounding but still a bit of skill needed to play.

Please rate and leave comments and corrections. Thanks!
Добавлено: 12.06.2016
Другие материалы по этой песне:
  • Аккорды и текст

Страница создана 12.06.2016
http://primanota.ru/threshold/watchtower-on-moon-chords.htm
Привет, Гость.
Предлагаем пройти революционный курс по гитаре.
Подарок от PrimaNota.Ru, забирай!