PrimaNota.ru - самый крупный в мире бесплатный архив песенных текстов, аккордов, табулатур и нот


Threshold - Falling Away - текст песни, таба, видео

Регистрация Запомнить меня
Войти через:  Facebook Google Twitter Vk Yandex Mail.ru

Threshold - Falling Away - текст песни, таба, видео

Печатать
Просмотров: 159
Авторы музыки: Richard West

Threshold – Falling Away 

intro
E----------------------------------------------------------------------------------|
B----------------------------------------------------------------------------------|
G--------------------1---------------------1---------------------4-----------------|
D-----1-2------1-2-4--------1-2------1-2-4----------1-2-1----1-2----1-2-1----1-2-4-|
A-2-4------2-4----------2-4------2-4----------------------4---------------2--------|
E----------------------------------------------------------------------------------|
electric
E----------------------------------------------------------------------------------|
B-16-14------------------------------------16-14-----------------------------------|
G-------13--16-14--------13----------------------14--16-14--------13---------------|
D-----------------14--16--------13-14-16-------------------14--16--------13-14-16--|
A---------------------------14—--------------------------------------14—-----------|
E----------------------------------------------------------------------------------|
verse
E----------------------------------------------------------------------------------|
B---4-------4----------------------------------------------------------------------|
G-6---4-------------6-------5------------------------------------------------------|
D---------6---6---7---6---6---4----------------------------------------------------|
A----------------------------------------------------------------------------------|
E----------------------------------------------------------------------------------|
pre chorus
E----------------------------------------------------------------------------------|
B----------------------------------------------------------------------------------|
G-9/11-11\9--9/11—11-------------------9/11-11\9--9/11—11--------------------------|
D-9/11-11\9--9/11-11-11-11-10-10-9-9-7-9/11-11\9--9/11-11--------------------------|
A-7/9---9\7--7/9---9-------------------7/9---9\7--7/9---9--5-5-7-------------------|
E----------------------------------------------------------------5\4-4-2-----------|
chorus
E----------------------------------------------------------------------------------|
B----------------------------------------------------------------------------------|
G--6--7--1--4-----7--1--4----------------------------------------------------------|
D--6--7--2--4--4--7—-2--4----------------------------------------------------------|
A--4--5--2--2--4--5--2--2----------------------------------------------------------|
E--------0-----2-----0-------------------------------------------------------------|




first solo
E-------------------11----------11-12----14b14-12-14-14b14----11-------------11----|
B-12-10-9----9—9\------12—12/14-------14-------------------------13----13----------|
G---------11-----/11--------------------------------------14--------11----11-------|
D----------------------------------------------------------------------------------|
A----------------------------------------------------------------------------------|
E----------------------------------------------------------------------------------|

E--11-------------12-12-12---------------------------------------------------------|
B-----13----13---------------------------------------------------------------------|
G--------11----11------------------------------------------------------------------|
D----------------------------------------------------------------------------------|
A----------------------------------------------------------------------------------|
E----------------------------------------------------------------------------------|
second solo
E----------------------------------------------------------12-----14b-14----10b-10-|
B-12b-12b-12-10-9-10-9-----------10-12-12b-12b--12-10-9-10----12---------15--------|
G----------------------11---9-11---------------------------------------------------|
D----------------------------------------------------------------------------------|
A----------------------------------------------------------------------------------|
E----------------------------------------------------------------------------------|

E-------12-------------------------------------------------------------------------|
B-10-------10-9----9-10-9--------12--------|    4X      |--------------------------|
G---------------11--------11-9---11--------6-6--6-6--6-6---------------------------|
D------------------------------------------6-6--6-6--6-6---------------------------|
A------------------------------------------4-4--4-4--4-4---------------------------|
E----------------------------------------------------------------------------------|

E----------------------------------------------------11--------------12------13----|
B-11--10-11-10----10-----------/11-/13-/14---11-10------10---12-11------11-----12--|
G--------------12----12-11-12----------------------8-------8-------9-------9-------|
D----------------------------------------------------------------------------------|
A----------------------------------------------------------------------------------|
E----------------------------------------------------------------------------------|

E----13-13b~~~---14-12----12-14-12----12-14-12----12-13b--11-10----10-9---9-8---8--|
B----------------------14----------14----------14---------------10------9-----8----|
G-10-------------------------------------------------------------------------------|
D----------------------------------------------------------------------------------|
A----------------------------------------------------------------------------------|
E----------------------------------------------------------------------------------|

E-7---7---6---------4-5-4-------5-7-9-12b------------------------------------------|
B---7---6---5---5-7-------7-5-7----------------------------------------------------|
G----------------------------------------------------------------------------------|
D----------------------------------------------------------------------------------|
A----------------------------------------------------------------------------------|
E----------------------------------------------------------------------------------|

E|→                      2X                        ←|----2-2-2-0-------------------|
B--------------------------------------------------------3-3-2-0-------------------|
G-11-11-----11-----11-------11-11-----11-----11----------4-4-2-1-------------------|
D-11-11-----11-----11-------10-10-----10-----10----------4-4-4-2-------------------|
A--------9------9------9-9---------9------9------9-9-----2-2-4-2—--4-4-5-2---------|
E--------------------------------------------------------2-2-2-0-----------5-4-2---|

Добавлено: 29.05.2012
Другие материалы по этой песне:
  • Аккорды и текст

Страница создана 21.05.2012
http://primanota.ru/threshold/falling-away-chords.htm
Привет, Гость.
Предлагаем пройти революционный курс по гитаре.
Подарок от PrimaNota.Ru, забирай!