PrimaNota.ru - самый крупный в мире бесплатный архив песенных текстов, аккордов, табулатур и нот


Three Stoned Men - Lieutenant Uhuru - аккорды и текст, видео

Регистрация Запомнить меня
Войти через:  Facebook Google Twitter Vk Yandex Mail.ru

Three Stoned Men - Lieutenant Uhuru - аккорды и текст, видео

Печатать
Просмотров: 61
Lieutenant Uhuru
Three Stoned Men
-------------------------------------------------------------------------------
        Three Stoned Men - Lieutenant Uhuru
-------------------------------------------------------------------------------
Album: V/A Fuck You Spaceman! (PP-001)
Label: Planet Pimp Records
Tabbed by: Richardfallusredundant
Email: LeaveMeAlone@Idontcareifitsoutof.key
 
Tuning: Standard0
 
chords
 
       G       A#        C         D
e|-----3-------6---------3---------5-----------------------------------------|
B|-----3-------6---------5---------7-----------------------------------------|
G|-----4-------7---------5---------7-----------------------------------------|
D|-----5-------8---------5---------7-----------------------------------------|
A|-----5-------8---------3---------5-----------------------------------------|
E|-----3-------6-------------------------------------------------------------|
 

This is a great song dedicated to the very attractive Lt Uhuru, the first
black woman on tv with an important role, I think. It's a love song so if
your girl/boy/tranfriend is named Uhuru this would be a great song to
play for hiim/her. I don't remember all the words but here it goes kinda.
I tried to place the chords over the words to show the timeing kinda.
During the chorus just strum like hell or softly and lovingly if you're
playing for you significant other:
 
G   G    G  A# G
Lieutenant  U huru (4X with the lyrics i can't remember of course if you
dont know the song you                     probably won't give a shit to
play it)
 
Chorus
 
     C              D                             G             
I'll smoke with you the best pot this planet can grow
 
Repeat All 3X I think kinda

     
Добавлено: 11.11.2013
Другие материалы по этой песне:
  • Аккорды и текст

Страница создана 11.11.2013
http://primanota.ru/three-stoned-men/lieutenant-uhuru-chords.htm
Привет, Гость.
Предлагаем пройти революционный курс по гитаре.
Подарок от PrimaNota.Ru, забирай!