PrimaNota.ru - самый крупный в мире бесплатный архив песенных текстов, аккордов, табулатур и нот


Three Days - Crucified - таба, видео

Регистрация Запомнить меня
Войти через:  Facebook Google Twitter Vk Yandex Mail.ru

Three Days - Crucified - таба, видео

Печатать
Просмотров: 73
		   Artist: Three Days
Song:   Crucified
Album:  Oh My Gatos
Tabbed by:  Michael Pennington (mike3d@mail.airmail.net)
Here's a newer, updated version of Crucified (I guess that's what they call it, it doesn't really have a name).  It should be a lot closer than the one I posted before.


Verse - No guitar, just bass and drums.


Pre-Chorus
e----------------------------------------------------
B----------------------------------------------------
G----------------------------------------------------
D--------55--------55--------65--------55--------55--
A--------55--------55--------65--------55--------55--
E--------33--------33--------43--------33--------33--
To see..   ..Feel..  ..know..  ..pain..  ..felt..   while...
Chorus - 
e-----------------------------------
B-----------------------------------
G----------------------------------- 
D----------------------------------- 
A-----9-----8-----7-----6-------5--- 
E-0-0-7-0-0-6-0-0-5-0-0-4-0-0-0-3---
Crucified!


Pre-Bridge - Riff C
e---------------------------------
B---------------------------------
G---------------------------------
D-5-5-5-5-5-5-5-5-5-5-5-5-5-5-5-5-
A-5-5-5-5-5-5-5-5-5-5-5-5-5-5-5-5-
E-3-3-3-3-3-3-3-3-3-3-3-3-3-3-3-3-


Bridge - Riff D
e------------------------
B------------------------
G------------------------
D----9---8---7---6----5--
A----9---8---7---6----5--
E-00---0---0---0---00----
Three days came and went
Christ used it for his ascent
He went and conquered Hell
Satan ran 'cause he knew he failed


Chorus - start slow, then get faster and faster 


e-----------------------------------
B-----------------------------------
G----------------------------------- 
D----------------------------------- 
A-----9-----8-----7-----6-------5--- 
E-0-0-7-0-0-6-0-0-5-0-0-4-0-0-0-3---
Crucified 
My Lord, my Savior
Crucified
He was
Crucified 
My Lord, my Savior
But then He
Arose!


Outro
e----------------------------------------------------
B----------------------------------------------------
G----------------------------------------------------
D--------55--------55--------65--------55--------55--
A--------55--------55--------65--------55--------55--
E--------33--------33--------43--------33--------33--
To see..   ..Feel..  ..know..  ..pain..  ..felt..   while...



e--------
B--------
G-------- Crim plays some lead here, but if you improvise on the 
D-555/17- e and B string around the 15th-19th fret it should sound O.K.
A-555/17-
E-333/15-
Crucified


e--------
B--------
G-------- Crim plays another mini-lead here.  Just play around and find 
D-555/17- something that sounds good.
A-555/17-
E-333/15-
But then, he rose.
     
Добавлено: 10.10.2013
Вам также может быть интересно:
Другие материалы по этой песне:
  • Аккорды и текст

Страница создана 10.10.2013
http://primanota.ru/three-days/crucified-chords.htm
Привет, Гость.
Предлагаем пройти революционный курс по гитаре.
Подарок от PrimaNota.Ru, забирай!