PrimaNota.ru - самый крупный в мире бесплатный архив песенных текстов, аккордов, табулатур и нот


Three Days Grace - Tv Demo - таба, видео

Регистрация Запомнить меня
Войти через:  Facebook Google Twitter Vk Yandex Mail.ru

Three Days Grace - Tv Demo - таба, видео

Печатать
Просмотров: 212
Уроки эстрадного вокала в Санкт-Петербурге
I learned this by ear around three in the morning so don't judge too much.
Tuning: (Drop D)
      (INTRO)
E|---------------------------------------------------------------------------|
B|---------------------------------------------------------------------------|
G|------------------------------------------------------------7---7/888------|
D|-3-3-xxx-3-3-3-3--0-0--3-3-xxx-3-3-3-3-0--0-3/2-0-8/7-0-5-0----------------|
A|-3-3-xxx-3-3-3-3--0-0--3-3-xxx-3-3-3-3-0--0-3/2-0-8/7-0-5-0-5-0-5/666------|
D|-3-3-xxx-3-3-3-3--0-0--3-3-xxx-3-3-3-3-0--0-3/2-0-8/7-0-5-0---0------------|

E|---------------------------------------------------------------------------|
B|---------------------------------------------------------------------------|
G|--------------------------------------------------7---7/888----------------|
D|-0-3\2-0-8\7-0-5-55-0-1.-1.-1.--0-3\2-0-8\7-0-5-0------------0-3\2-0-8\7-0-|
A|-0-3\2-0-8\7-0-5-55-0-1.-1.-1.--0-3\2-0-8\7-0-5-0-5-0-5/666--0-3\2-0-8\7-0-|
D|-0-3\2-0-8\7-0-5-55-0-1.-1.-1.--0-3\2-0-8\7-0-5-0---0--------0-3\2-0-8\7-0-|

E|---------------------------------------------------------------------------|
B|---------------------------------------------------------------------------|
G|-----7---7/888-------------------7---7/888------------------7---7/888------|
D|-5-0------------0-3\2-0-88-0-5-0-----------x-3\2-0-88-0-5-0----------------|
A|-5-0-5-0-5/666--0-3\2-0-88-0-5-0-5-0-5/666-x-3\2-0-88-0-5-0-5-0-5/666------|
D|-5-0---0--------0-3\2-0-88-0-5-0---0-------x-3\2-0-88-0-5-0---0------------|

E|---------------------------------------------------------------------------|
B|---------------------------------------------------------------------------|
G|-----------------------------------------7---7/888-------------------------|
D|------------------------0-3/2-0-88-0-5-0-----------------------------------|
A|------------------------0-3/2-0-88-0-5-0-5-0-5/666-------------------------|
D|------------------------0-3/2-0-88-0-5-0---0-------------------------------|

Verse 1:
E|---------------------------------------------------------------------------|
B|---------------------------------------------------------------------------|
G|-10--10\7--7-10--10\7---10-10\7-7------------------------------------------|
D|--8---8\5--5--8---8\5-0--8--8\5-5------------------------------------------|
A|--8---8\5--5--8---8\5-0--8--8\5-5------------------------------------------|
D|--8---8\5--5--8---8\5-0--8--8\5-5------------------------------------------|

Chorus:
E|----------------------------------------------------------------------------|
B|----------------------------------------------------------------------------|
G|----------------------------------------------------------------------------|
D|-0-0-3-0-3-0-5-0-330-8-88--7--------------0-0-3-0-3-0-5-0-330-8-88-8-7-88-8-|
A|-0-0-3-0-3-0-5-0-330-8-88--7------7---7-8-0-0-3-0-3-0-5-0-330-8-88-8-7-88-8-|
D|-0-0-3-0-3-0-5-0-330-8-88--7-7-10---7-----0-0-3-0-3-0-5-0-330-8-88-8-7-88-8-|

E|----------------------------------------------------------------------------|
B|----------------------------------------------------------------------------|
G|----------------------------------------------------------------------------|
D|-0-0-3-0-3-0-5-0-330-8-88-8-7-------------0-0-3-0-3-0-5-0-330-8-888-7-111---|
A|-0-0-3-0-3-0-5-0-330-8-88-8-7------7--7-8-0-0-3-0-3-0-5-0-330-8-888-7-111---|
D|-0-0-3-0-3-0-5-0-330-8-88-8-7-7-10---7----0-0-3-0-3-0-5-0-330-8-888-7-111---|

[Pre Verse]
E|---------------------------------------------------------------------------|
B|---------------------------------------------------------------------------|
G|-------------------7---7/888-------------------7---7/888-------------------|
D|-0-3\2-0-8\7-0-5-0-----------0-3\2-0-8\7-0-5-0-----------x-3\2-0-8\7-0-5-0-|
A|-0-3\2-0-8\7-0-5-0-5-0-5/666-0-3\2-0-8\7-0-5-0-5-0-5/666-x-3\2-0-8\7-0-5-0-|
D|-0-3\2-0-8\7-0-5-0---0-------0-3\2-0-8\7-0-5-0---0-------x-3\2-0-8\7-0-5-0-|

E|---------------------------------------------------------------------------|
B|---------------------------------------------------------------------------|
G|-7---7/888--------------------7---7/888------------------------------------|
D|------------0-3\2-0-8\7-0-5-0----------------------------------------------|
A|-5-0-5/666--0-3\2-0-8\7-0-5-0-5-0-5/666------------------------------------|
D|---0--------0-3\2-0-8\7-0-5-0---0------------------------------------------|
[Verse and chorus again]

Interlude:
E|---------------------------------------------------------------------------|
B|---------------------------------------------------------------------------|
G|-9-9-xx-12-11-7-7-9\10/9-5--9-9-xx-12-11-7-7--9\10/9--5--------------------|
D|-9-9-xx-12-11-7-7-9\10/9-5--9-9-xx-12-11-7-7--9\10/9--5--------------------|
A|-7-7-xx-10--9-5-5-7\8/7--3--7-7-xx-10--9-5-5--7\8/7---3--------------------|
D|---------------------------------------------------------------------------|

E|---------------------------------------------------------------------------|
B|------6-5---------5-6/5------6-5-----5-6\5---------------------------------|
G|--7-7-----7-5-5-5--------7-7-----5-5---------------------------------------|
D|--5-----------3----------5-------3-----------------------------------------|
A|--5-----------3----------5-------3-----------------------------------------|
D|--5-----------3----------5-------3-----------------------------------------|

Break:
E|---------------------------------------------------------------------------|
B|---------------------------------------------------------------------------|
G|-77777777/9999/10101010-------------------------77777777/1010\9------------|
D|-xxxxxxxx-xxxx-x-x-x-x--8-8-7-------------------xxxxxxxx-x--x---8-8-7-7-8--|
A|-55555555/7777/8-8-8-8--8-8-7------7---7-8------55555555/8--8\7-8-8-7-7-8--|
D|------------------------8-8-7-7-10---7--------------------------8-8-7-7-8--|

E|----------------------------------------------------------------------------|
B|----------------------------------------------------------------------------|
G|-77777777/9999/10101010-----------------------77777777/1010\9---------------|
D|-xxxxxxxx-xxxx-x-x-x-x--8-8-7-----------------xxxxxxxx-x--x---8-8-7-0-1-1-1-|
A|-55555555/7777/8-8-8-8--8-8-7------7---7-8----55555555/8--8\7-8-8-7-0-1-1-1-|
D|------------------------8-8-7-7-10---7------------------------8-8-7-0-1-1-1-|

Outro:

E|---------------------------------------------------------------------------|
B|---------------------------------------------------------------------------|
G|-------------------7---7/888-------------------7---7/888-------------------|
D|-0-3\2-0-8\7-0-5-0-----------0-3\2-0-8\7-0-5-0-----------------------------|
A|-0-3\2-0-8\7-0-5-0-5-0-5/666-0-3\2-0-8\7-0-5-0-5-0-5/666-------------------|
D|-0-3\2-0-8\7-0-5-0---0-------0-3\2-0-8\7-0-5-0---0-------------------------|

E|---------------------------------------------------------------------------|
B|---------------------------------------------------------------------------|
G|-------------------7---7/888-------------------7---7/888-------------------|
D|-0-3\2-0-8\7-0-5-0-----------0-3\2-0-8\7-0-5-0-----------------------------|
A|-0-3\2-0-8\7-0-5-0-5-0-5/666-0-3\2-0-8\7-0-5-0-5-0-5/666-------------------|
D|-0-3\2-0-8\7-0-5-0---0-------0-3\2-0-8\7-0-5-0---0-------------------------|

~ Corey Jacob Dorman
Youtube:http://www.youtube.com/user/RiseAboveHonor?feature=watch
Facebook: https://www.facebook.com/corey.j.dorman.5#!/allremainsthesame
Добавлено: 19.01.2014
Другие материалы по этой песне:
  • Аккорды и текст

Страница создана 19.01.2014
http://primanota.ru/three-days-grace/tv-demo-chords.htm
Привет, Гость.
Предлагаем пройти революционный курс по гитаре.
Подарок от PrimaNota.Ru, забирай!