PrimaNota.ru - самый крупный в мире бесплатный архив песенных текстов, аккордов, табулатур и нот


Three Days Grace - In Front Of Me - текст песни, таба, видео

Регистрация Запомнить меня
Войти через:  Facebook Google Twitter Vk Yandex Mail.ru

Three Days Grace - In Front Of Me - текст песни, таба, видео

Печатать
Просмотров: 97
-------------------------------------------------------------------------------
                           Three Days Grace - In Front of Me
-------------------------------------------------------------------------------
Tabbed by: Diesel
E-mail: daughtryfan497@gmail.com

Tuning: Drop C ( C - G - C - F - A - D)

Artist: Three Days Grace
Album: Three Days Grace EP
Year: 2000


                          Intro and Verse

e|------------------------------------------------------------------------------|
B|------------------3-----------------------------------------------------------|
G|------------------0-----------------------------------------------------------|
D|-2--2--0----------x-----------------------------------------------------------|
A|-2--2--0--x3-0-0--3-----------------------------------------------------------|
E|-2--2--0-----0-0--------------------------------------------------------------|
   *  *        * *

                           Pre Chorus

e|------------------------------------------------------------------------------|
B|------------------------------------------------------------------------------|
G|------------------------------------------------------------------------------|
D|---999-10-999-12--999-10-9----------------------------------------------------|
A|---999-10-999-12--999-10-9--x4------------------------------------------------|
E|---999-10-999-12--999-10-9----------------------------------------------------|

                               Chorus

e|-----------------------------------------------------------------------------|
B|-----------------------------------------------------------------------------|
G|------9--5-------------------------------------------------------------------|
D|------9--5--5---7------------------------------------------------------------|
A|------7--3--5---7--x4--------------------------------------------------------|
E|------------5---7------------------------------------------------------------|


                                   Interlude

e|-----------------------------------------------------------------------------|
B|-12~----------12~-----------12~------------12~-------------------------------|
G|-12~-9---15---12~-9---------12~--9---15----12~-9-----------------------------|
D|-----x----x-------x--12---7------x---x---------x-----------------------------|
A|-----7---13-------7--12---7------7---13--------7-----------------------------|
E|---------------------12---7--------------------------------------------------|

Verse
Pre Chorus
Chorus
Verse
Pre Chorus
Chorus
Interlude
Pre Chorus (PM)
Chorus
Pre Chorus

************************************

| /   slide up
| \   slide down
| h   hammer-on
| p   pull-off
| ~   vibrato
| +   harmonic
| x   Mute note
| b   Bend
| pb  Pre-bend
| br  Bend release
| pbr Pre-bend release
| brb Bend release bend

************************************
Добавлено: 25.04.2016
Другие материалы по этой песне:
  • Аккорды и текст

Страница создана 07.04.2012
http://primanota.ru/three-days-grace/in-front-of-me-chords.htm
Привет, Гость.
Предлагаем пройти революционный курс по гитаре.
Подарок от PrimaNota.Ru, забирай!