PrimaNota.ru - самый крупный в мире бесплатный архив песенных текстов, аккордов, табулатур и нот


Three Days Grace - Anonymous - текст песни, таба, видео

Регистрация Запомнить меня
Войти через:  Facebook Google Twitter Vk Yandex Mail.ru

Three Days Grace - Anonymous - текст песни, таба, видео

Печатать
Просмотров: 1733
-------------------------------------------------------------------------------
                             ANONYMOUS - Three Days Grace
-------------------------------------------------------------------------------
Tabbed by: Jason Champagne
E-mail: JCcrezXjasonX@gmail.com

Based off of my video I made 2 days before the albums release here:

http://www.youtube.com/watch?v=AJdllOpbWGw

Tuning: D-A-D-G-B-E

Intro/Verse

E|----------------------------------------------------------------------------------|
B|----------------------------------------------------------------------------------|
G|-------------------7---------------8-7-----5-------------3------------------------|
D|------5------7--8-------------5---------8-----7--------3---5---2h3p2--0-5----3----|
A|----5----5------------------5----5-------------------3------------------3--0-1----|
D|-5---------5-------------5-------------------------3------------------------------|x2

Chorus

E|--------------------------------------------------|
B|--------------------------------------------------|
G|--------------------------------------------------|
D|--------------------------------------------------|
A|-0--0----0-3-3--3--3-3-8--8--8---10-10--10--10-10-|
D|-0--0----0-3-3--3--3-3-8--8--8---10-10--10--10-10-|

E|------------------------------------------|
B|------------------------------------------|
G|------------------------------------------|
D|------------------------------------------|
A|-0--0----0-3-3--3--3-3-5--5--5---8-8-7-10-|
D|-0--0----0-3-3--3--3-3-5--5--5---8-8-7-10-|

E|------------------------------------------------------|
B|------------------------------------------------------|
G|------------------------------------------------------|
D|------------------------------------------------------|
A|-0--0----0-3-3--3--3-3-8--8--8---10-10-10-10-10-10-10-|
D|-0--0----0-3-3--3--3-3-8--8--8---10-10-10-10-10-10-10-|

E|--------------------------------------|
B|--------------------------------------|
G|--------------------------------------|
D|--------------------------------------|
A|-8--8--8--8--7-8-7-5--0-10--0---------|
D|-8--8--8--8--7-8-7-5--0-10--0---------|

Intro/Verse

E|----------------------------------------------------------------------------------|
B|----------------------------------------------------------------------------------|
G|-------------------7---------------8-7-----5-------------3------------------------|
D|------5------7--8-------------5---------8-----7--------3---5---2h3p2--0-5----3----|
A|----5----5------------------5----5-------------------3------------------3--0-1----|
D|-5---------5-------------5-------------------------3------------------------------|x2

Chorus

E|--------------------------------------------------|
B|--------------------------------------------------|
G|--------------------------------------------------|
D|--------------------------------------------------|
A|-0--0----0-3-3--3--3-3-8--8--8---10-10--10--10-10-|
D|-0--0----0-3-3--3--3-3-8--8--8---10-10--10--10-10-|

E|------------------------------------------|
B|------------------------------------------|
G|------------------------------------------|
D|------------------------------------------|
A|-0--0----0-3-3--3--3-3-5--5--5---8-8-7-10-|
D|-0--0----0-3-3--3--3-3-5--5--5---8-8-7-10-|

E|------------------------------------------------------|
B|------------------------------------------------------|
G|------------------------------------------------------|
D|------------------------------------------------------|
A|-0--0----0-3-3--3--3-3-8--8--8---10-10-10-10-10-10-10-|
D|-0--0----0-3-3--3--3-3-8--8--8---10-10-10-10-10-10-10-|

E|---------------------------|
B|---------------------------|
G|---------------------------|
D|-------------7-8-7-5----10-|
A|-8--8--8--8-----------8----|
D|-8--8--8--8----------------|

Bridge

E|----------------------------------------------------------------|
B|----------------------------------------------------------------|
G|-----------------12-11-11--------------------------12-11-11-----|
D|-----------------x--x--x---------------------------x--x--x------|
A|-12--0--10-12-12-10-9--9-10-0-8--8--8--8--10-12-12-10-9--9-10-0-|
D|-12--0--10-12-12---------10-0-8--8--8--8--10-12-12---------10-0-|x4

E|--------------------------------|
B|--------------------------------|
G|-7---5---10--14--9---5---7------|
D|-5---3---8---0---7---3---5------|
A|-5---3---8---0---7---3---5------|
D|-5---3---8---0---7---3---5------|

Chorus

E|--------------------------------------------------|
B|--------------------------------------------------|
G|--------------------------------------------------|
D|--------------------------------------------------|
A|-0--0----0-3-3--3--3-3-8--8--8---10-10--10--10-10-|
D|-0--0----0-3-3--3--3-3-8--8--8---10-10--10--10-10-|

E|------------------------------------------|
B|------------------------------------------|
G|------------------------------------------|
D|------------------------------------------|
A|-0--0----0-3-3--3--3-3-5--5--5---8-8-7-10-|
D|-0--0----0-3-3--3--3-3-5--5--5---8-8-7-10-|

E|------------------------------------------------------|
B|------------------------------------------------------|
G|------------------------------------------------------|
D|------------------------------------------------------|
A|-0--0----0-3-3--3--3-3-8--8--8---10-10-10-10-10-10-10-|
D|-0--0----0-3-3--3--3-3-8--8--8---10-10-10-10-10-10-10-|

Outro

E|--------------------------------------|
B|--------------------------------------|
G|--------------------------------------|
D|--------------------------------------|
A|--8--8--8--8--8--10-10-10-10-10-10-10-|
D|--8--8--8--8--8--10-10-10-10-10-10-10-|x2

E|--------------------------------------|
B|--------------------------------------|
G|--------------------------------------|
D|--------------------------------------|
A|-8--8--8--8--7-8-7-5--0-10--0---------|
D|-8--8--8--8--7-8-7-5--0-10--0---------|

************************************

| /   slide up
| \   slide down
| h   hammer-on
| p   pull-off
| ~   vibrato
| +   harmonic
| x   Mute note
| b   Bend
| pb  Pre-bend
| br  Bend release
| pbr Pre-bend release
| brb Bend release bend

************************************
Добавлено: 15.06.2013
Другие материалы по этой песне:
  • Аккорды и текст

Страница создана 15.06.2013
http://primanota.ru/three-days-grace/anonymous-chords.htm
Привет, Гость.
Предлагаем пройти революционный курс по гитаре.
Подарок от PrimaNota.Ru, забирай!