PrimaNota.ru - самый крупный в мире бесплатный архив песенных текстов, аккордов, табулатур и нот


Threat Signal - Counterbalance - текст песни, таба, видео

Регистрация Запомнить меня
Войти через:  Facebook Google Twitter Vk Yandex Mail.ru

Threat Signal - Counterbalance - текст песни, таба, видео

Печатать
Просмотров: 129
Threat Signal
Counterbalance
5:06 – 5:38

Tabbed by; Nate Pritchett

this tab may look bad cuz it came out differently than  had it formatted in Word, so, if 
messed up, sorry  =]


This is all acoustic guitar with quite an annoying pattern of picking, practice over and 
or it'll sound like sh*t

D|--------------------------------------------|
A|----------5------6--------------------------|
F|-------------5------5-------5---------------|
C|----7----------7------7-------7-------------|
G|-------7------------------------------------|
C|--7----------------------7------------------|

D|---------------------------------1--0----------------------1--0----0------------------|
A|----------0--------3----1----0---------3-------------------------3-------------0------|
F|------------2------4----2----2-------------2----2---0---2----------------1-----1------|
C|---3----------3-------3----3---------------3----3---2---3--3--2--------2----------2---|
G|--------------------------------------------------------------------------------------|
C|-3---3---------------------------0------------0-------0------------2--------2---------|

D|-----------------------------------5------------------|
A|---------------------------5--------------------------|
F|--------------------5----------5-------5------5-------|
C|-----9---7--5/4--------7---------7------7------7------|
G|---7-----9--7/6----------7----------------------------|
C|-6-----------------7-----------------------7----------|

D|---------------------------------1--0----------------------1--0----0-----------------|
A|----------0--------3----1----0---------3-------------------------3-------------0-----|
F|------------2------4----2----2-------------2----2---0---2----------------1-----1-----|
C|---3----------3-------3----3---------------3----3---2---3--3--2--------2----------2--|
G|-------------------------------------------------------------------------------------|
C|-3---3---------------------------0------------0-------0------------2--------2--------|

D|------------------------------------0---------|
A|-----------------------------1--------1-------|
F|-----------------------5-----2----------------|
C|--9------9---7--5/4-------3-------------------|
G|------7------9--7/6---------------------------|
C|--6--------------------3---------3------------|

D|--1p0-------1------0--------------------0----------|
A|-------3-1------------0------0-----3----1----0-----|
F|------------2--------------1---1---4---------1-----|
C|--3-----------3----------2------------2----2-------|
G|---------------------------------------------------|
C|-------------------2-------------------------------|

D|---------------0-------1p0-------1------0~~~~~|
A|--------1--------1----------3-1---------0~~~~~|
F|--5-----2------------------------2------1~~~~~|
C|-----3-----------------3------------3----~~~~~|
G|-----------------------------------------~~~~~|
C|--3---------3---------------------------2~~~~~|
Добавлено: 24.02.2012
Другие материалы по этой песне:

Страница создана 24.02.2012
http://primanota.ru/threat-signal/counterbalance-chords.htm
Привет, Гость.
Предлагаем пройти революционный курс по гитаре.
Подарок от PrimaNota.Ru, забирай!