PrimaNota.ru - самый крупный в мире бесплатный архив песенных текстов, аккордов, табулатур и нот


Thrawsunblat - Maritime Shores - аккорды и текст, видео

Регистрация Запомнить меня
Войти через:  Facebook Google Twitter Vk Yandex Mail.ru

Thrawsunblat - Maritime Shores - аккорды и текст, видео

Печатать
Просмотров: 78
Maritime Shores
Thrawsunblat
Since I couldn't find these anywhere I tried my best to write them down on my own. 
This is my first time tabbing anything on this website, I hope it's correct and helpful.
Cheers!
http://www.metal-archives.com/bands/Thrawsunblat/3540357433
https://thrawsunblat.bandcamp.com/
https://www.facebook.com/thrawsunblat/

Tuning: D Standard

[Intro]

Chords:
Am Em Am G Am F Em
Am Em Am G Am F Em 
Em G Am
(hammer on the D string while playing the last Am)

Melody:

E|--------------------------------------------8-10-12-7-------------8------------------|
B|-10-8-10---8-10---10-8-10-----------10-8-10-----------10-8---8-10--------------------|
G|---------9----------------7----------------------------------------------------------|
D|----------------------------10-9-7---------------------------------------------------|
A|-------------------------------------------------------------------------------------|
E|-------------------------------------------------------------------------------------|

E|--------------------------------------------8-10-12-7---------7-8----7-8----7-8-7----|
B|-10-8-10---8-10---10-8-10-----------10-8-10-----------10-8-10-----10-----10-------10-|
G|---------9----------------7----------------------------------------------------------|
D|----------------------------10-9-7---------------------------------------------------|
A|-------------------------------------------------------------------------------------|
E|-------------------------------------------------------------------------------------|

[Verse 1]

Am                         Em
I've seen this continent's oceans,
    Am                   G
And all its creatures in motion.
    F                Em
But above it all for splendour
           C   G Am 
stands the briny Maritimes.

Am                     Em
Where the mist and the rain
      Am        G
Blast life into me,
        F         Em
And the old white pines
      C     G        Am
Stand guard over the sea
      C     G        Am
Stand guard over the sea.

[Chorus]

Am            Em          Am      G
Though I have left her as ofttime before
C        G            Am
Oh how I long for her Maritime shores
Am       Em       Am          G
I am but one of a thousand of lore
C        G            Am
Oh how I long for her Maritime shores
C        G            Am
Oh how I long for her Maritime shores.

[Interlude]

Chords:
Am Em Am G Am F Em
Am Em Am G Am F Em 
Em G Am 
(hammer on the D string while playing the last Am)

Melody:

E|--------------------------------------------8-10-12-7-------------8------------------|
B|-10-8-10---8-10---10-8-10-----------10-8-10-----------10-8---8-10--------------------|
G|---------9----------------7----------------------------------------------------------|
D|----------------------------10-9-7---------------------------------------------------|
A|-------------------------------------------------------------------------------------|
E|-------------------------------------------------------------------------------------|

E|--------------------------------------------8-10-12-7---------7-8----7-8----7-8-7----|
B|-10-8-10---8-10---10-8-10-----------10-8-10-----------10-8-10-----10-----10-------10-|
G|---------9----------------7----------------------------------------------------------|
D|----------------------------10-9-7---------------------------------------------------|
A|-------------------------------------------------------------------------------------|
E|-------------------------------------------------------------------------------------|

[Verse 2]

Am                             Em
Though I've lost myself in the greenery,
    Am                G
And all other distant scenery,
F              Em
None match the climes
       C   G  Am
Of the misty Maritimes.

Am                  Em
Elsewhere pipes are singing,
    Am                    G
And strings and drums are ringing.
    F             Em
But none with the life
       C   G  Am
of the briny Maritimes
       C   G  Am
of the briny Maritimes.

[Chorus]

Am            Em          Am      G
Though I have left her as ofttime before
C        G            Am
Oh how I long for her Maritime shores
Am       Em       Am          G
I am but one of a thousand of lore
C        G            Am
Oh how I long for her Maritime shores
C        G            Am
Oh how I long for her Maritime shores.

[Outro]

Chords:

Am Em C G

Am Em C Am G C G Am 

Melody:

E|----12-10-12--------10-8-10-8-10-8------12-10-12--------10-8-10-8-7----------8----|
B|-10----------10\8-8------------------10----------10\8-8-------------10-8---8---10-|
G|-------------------------------------------------------------------------9--------|
D|----------------------------------------------------------------------------------|
A|----------------------------------------------------------------------------------|
E|----------------------------------------------------------------------------------|

E|----12-10-12--------10-8-10-8-10-8------12-10-12--------8-10-12-8-----------------|
B|-10----------10\8-8------------------10----------10\8-8-----------8-8h10----------|
G|----------------------------------------------------------------------------------|
D|----------------------------------------------------------------------------------|
A|----------------------------------------------------------------------------------|
E|----------------------------------------------------------------------------------|
Добавлено: 26.03.2016
Другие материалы по этой песне:
  • Аккорды и текст

Страница создана 26.03.2016
http://primanota.ru/thrawsunblat/maritime-shores-chords.htm
Привет, Гость.
Предлагаем пройти революционный курс по гитаре.
Подарок от PrimaNota.Ru, забирай!