PrimaNota.ru - самый крупный в мире бесплатный архив песенных текстов, аккордов, табулатур и нот


Thousand Foot Krutch - The Art Of Breaking - текст песни, таба, бас-таба, видео

Регистрация Запомнить меня
Войти через:  Facebook Google Twitter Vk Yandex Mail.ru

Thousand Foot Krutch - The Art Of Breaking - текст песни, таба, бас-таба, видео

Печатать
Просмотров: 424
----------------------------------------------------------------------------
                The Art Of Breaking - Thousand Foot Krutch
----------------------------------------------------------------------------
Tabbed by:ricsexton
Email:ricksexton@tmail.com

Tuning:Standard

Intro
e|-------------------------------------------------------------------------|
B|-------------------------------------------------------------------------|
G|-------------------------------------------------------------------------|
D|-66-66-66--66-66-66------------------------------------------------------|
A|-66-66-66--66-66-66------------------------------------------------------|
E|-44-44-44--44-44-44------------------------------------------------------|

Verse
e|-----------------------------------------------------------------------|
B|-----------------------------------------------------------------------|
G|-----------------------------------------------------------------------|
D|-66-66-66--44-44-44--22-22-22------4------4----------------------------|x3
A|-66-66-66--44-44-44--22-22-22--2-4----2-4------------------------------|
E|-44-44-44--22-22-22--00-00-00------------------------------------------|

4th time do this
e|-------------------------------------------------------------------------|
B|-------------------------------------------------------------------------|
G|-----------------------------------4-2-1---------------------------------|
D|-66-66-66--44-44-44--22-22-22-----4--------------------------------------|
A|-66-66-66--44-44-44--22-22-22--2-4---------------------------------------|
E|-44-44-44--22-22-22--00-00-00--------------------------------------------|

Chorus
e|-----------------------------------------------------------------------|
B|-----------------------------------------------------------------------|
G|-----------------------------------------------------------------------|
D|-6-66-6-66--2-22--4-44-------------------------------------------------|x3
A|-6-66-6-66--2-22--4-44-------------------------------------------------|
E|-4-44-4-44--0-00--2-22-------------------------------------------------|

4th time
e|-------------------------------------------------------------------------|
B|-------------------------------------------------------------------------|
G|-------------------------------------------------------------------------|
D|-6-66-6-66--2-9-6--------------------------------------------------------|
A|-6-66-6-66--2-9-6--------------------------------------------------------|
E|-4-44-4-44--0-7-4--------------------------------------------------------|

part before next verse
e|-------------------------------------------------------------------------|
B|-------------------------------------------------------------------------|
G|-------------------------------------------------------------------------|
D|-66-66-66-66-6666--------------------------------------------------------|
A|-66-66-66-66-6666--------------------------------------------------------|
E|-44-44-44-44-4444--------------------------------------------------------|

then to the next verse
Verse
e|-----------------------------------------------------------------------|
B|-----------------------------------------------------------------------|
G|-----------------------------------------------------------------------|
D|-66-66-66--44-44-44--22-22-22------4------4----------------------------|x3
A|-66-66-66--44-44-44--22-22-22--2-4----2-4------------------------------|
E|-44-44-44--22-22-22--00-00-00------------------------------------------|

4th time
e|----------22222-4-0--------22222-4-0-------------------------------------|
B|-------------------------------------------------------------------------|
G|---------------------------------------------------4-2-1-----------------|
D|-66-66-66----------44-44-44----------22-22-22-----4----------------------|
A|-66-66-66----------44-44-44----------22-22-22--2-4-----------------------|
E|-44-44-44----------22-22-22----------00-00-00----------------------------|

then back to the chorus
Chorus
e|-----------------------------------------------------------------------|
B|-----------------------------------------------------------------------|
G|-----------------------------------------------------------------------|
D|-6-66-6-66--2-22--4-44-------------------------------------------------|x3
A|-6-66-6-66--2-22--4-44-------------------------------------------------|
E|-4-44-4-44--0-00--2-22-------------------------------------------------|

4th time
e|-------------------------------------------------------------------------|
B|-------------------------------------------------------------------------|
G|-------------------------------------------------------------------------|
D|-6-66-6-66--2-9-6--------------------------------------------------------|
A|-6-66-6-66--2-9-6--------------------------------------------------------|
E|-4-44-4-44--0-7-4--------------------------------------------------------|

now the quiet part
e|---7------------------------7--------------------------------------------|
B|-------------------------------------------------------------------------|
G|-6---8-8^(8)^(8)^(8)^(8)--6---8-6----------------------------------------|
D|-------------------------------------------------------------------------|
A|-------------------------------------------------------------------------|
E|-------------------------------------------------------------------------|

e|---7------------------------7--------------------------------------------|
B|----------------------------------9^(9)^(9)^(9)^(9)----------------------|
G|-6---8-8^(8)^(8)^(8)^(8)--6---8-6----------------------------------------|
D|-------------------------------------------------------------------------|
A|-------------------------------------------------------------------------|
E|-------------------------------------------------------------------------|

e|---7-------7------------7-------7------------7-------7------------7------|
B|---------------10-9-----------------9-10-9---------------9-10------------|
G|-6---8-6-6---8------9-6---8-6-6---8--------6---8-6-6---8------9-6---8-6--|
D|-------------------------------------------------------------------------|
A|-------------------------------------------------------------------------|
E|-------------------------------------------------------------------------|

e|-------------------------------------------------------------------------|
B|-------------------------------------------------------------------------|
G|-------------------------------------------------------------------------|
D|-8-9--8-9-6--6-----------------------------------------------------------|
A|-8-9--8-9-6--6-----------------------------------------------------------|
E|-6-7--6-7-4--4-----------------------------------------------------------|

do the chorus x2 then the last part of the chorus
Chorus x2
e|-------------------------------------------------------------------------|
B|-------------------------------------------------------------------------|
G|-------------------------------------------------------------------------|
D|-2-22-4-44-6-66-6-66--4-44-2-22-6-66-6-66--------------------------------|
A|-2-22-4-44-6-66-6-66--4-44-2-22-6-66-6-66--------------------------------|
E|-0-00-2-22-4-44-4-44--2-22-0-00-4-44-4-44--------------------------------|

e|-------------------------------------------------------------------------|
B|-------------------------------------------------------------------------|
G|-------------------------------------------------------------------------|
D|-2-22-4-44-6-66-6-66-4-44-2-22--6-66-6-66--------------------------------|
A|-2-22-4-44-6-66-6-66-4-44-2-22--6-66-6-66--------------------------------|
E|-0-00-2-22-4-44-4-44-2-22-0-00--4-44-4-44--------------------------------|

last part of chorus
e|-----------------------------------------------------------------------|
B|-----------------------------------------------------------------------|
G|-----------------------------------------------------------------------|
D|-4-44-2-22-6-66-6-66---------------------------------------------------|x
A|-4-44-2-22-6-66-6-66---------------------------------------------------|
E|-2-22-0-00-4-44-4-44---------------------------------------------------|

during the last chorus a second guitar plays so here it is
e|----------------------------------------------------------------13-14~---|
B|---------------------------------------11-12-14-12-----------------------|
G|-13^(16)13~-13^(16)-13~-13~-13~--13-14-------------13~-14^-(17)----------|
D|-------------------------------------------------------------------------|
A|-------------------------------------------------------------------------|
E|-------------------------------------------------------------------------|

e|-16~-18-16~-16^(19)16-21^(23)-21^(23)21^(23)21-19----21^(23)21-----------|
B|--------------------------------------------------21-----------21--------|
G|-------------------------------------------------------------------------|
D|-------------------------------------------------------------------------|
A|-------------------------------------------------------------------------|
E|-------------------------------------------------------------------------|
so thats it its not 100% but i think its pretty close.it took me a long time and its my 
tab so email me if you find any corrections.
enjoy.

| ^  bend note
| /  slide up
|   slide down
| h  hammer-on
| p  pull-off
| ~  vibrato
| +  harmonic
| x  Mute note
============================================================================
Добавлено: 25.08.2013
Другие материалы по этой песне:
  • Аккорды и текст

Страница создана 19.03.2012
http://primanota.ru/thousand-foot-krutch/the-art-of-breaking-chords.htm
Привет, Гость.
Предлагаем пройти революционный курс по гитаре.
Подарок от PrimaNota.Ru, забирай!