PrimaNota.ru - самый крупный в мире бесплатный архив песенных текстов, аккордов, табулатур и нот


Thousand Foot Krutch - Hand Grenade - текст песни, таба, бас-таба, видео

Регистрация Запомнить меня
Войти через:  Facebook Google Twitter Vk Yandex Mail.ru

Thousand Foot Krutch - Hand Grenade - текст песни, таба, бас-таба, видео

Печатать
Просмотров: 215
Artist: Thousand Foot Krutch
Song: Hand Grenade
Album: The Art of Breaking

Tuning: Drop D(DADGBE) low to high

Intro
E|-----------------------------------------------------------------------|
B|-----------------------------------------------------------------------|
G|-----------------------------------------------------------------------|
D|--7-7-7-------------------------------7-7-7----------------------------|x4
A|--5-5-5--7-7-7------------------------5-5-5--7-7-7--10-10-10--0-6-5-3-0|
D|---------7-7-7-8888----0-3-5-5^3-------------7-7-7--10-10-10--0-6-5-3-0|

4th time end with

E|-----------------------------------------------------------------------|
B|-----------------------------------------------------------------------|
G|-----------------------------------------------------------------------|
D|--7-7-7-------------------------------7-7-7----------------------------|
A|--5-5-5--7-7-7------------------------5-5-5--7-7-7--10-10-10-----------|
D|---------7-7-7-8888----0-3-5-5^3-------------7-7-7--10-10-10----5^5^5^-|

Pre-Chorus
E|-----------------------------------------------------------------------|
B|-----------------------------------------------------------------------|
G|-----------------------------------------------------------------------|
D|-x--x-x-x-x--8~---5~---6^6^6^------------------------------------------|
A|-x--x-x-x-x--8~---5~---------------------------------------------------|
D|-x--x-x-x-x--8~---5~---------------------------------------------------|

Chorus
E|-----------------------------------------------------------------------|
B|-----------------------------------------------------------------------|
G|-----------------------------------------------------------------------|
D|-0-10-9--0-3-5--0-6-5--0-2-3--0-3--------------------------------------|
A|-0-10-9--0-3-5--0-6-5--0-2-3--0-3--------------------------------------|
D|-0-10-9--0-3-5--0-6-5--0-2-3--0-3--------------------------------------|

E|-----------------------------------------------------------------------|
B|-----------------------------------------------------------------------|
G|-----------------------------------------------------------------------|
D|--8~---5~---6^6^6^-----------------------------------------------------|
A|--8~---5~--------------------------------------------------------------|
D|--8~---5~--------------------------------------------------------------|

E|-----------------------------------------------------------------------|
B|-----------------------------------------------------------------------|
G|-----------------------------------------------------------------------|
D|--7-7-7-------------------------------7-7-7----------------------------|
A|--5-5-5--7-7-7------------------------5-5-5--7-7-7--10-10-10-----------|
D|---------7-7-7-8888----0-3-5-5^3-------------7-7-7--10-10-10--5^5^5^5^-|

E|-----------------------------------------------------------------------|
B|-----------------------------------------------------------------------|
G|-----------------------------------------------------------------------|
D|--8~---5~---6^6^6^-----------------------------------------------------|
A|--8~---5~--------------------------------------------------------------|
D|--8~---5~--------------------------------------------------------------|

Chorus
E|-----------------------------------------------------------------------|
B|-----------------------------------------------------------------------|
G|-----------------------------------------------------------------------|
D|-0-10-9--0-3-5--0-6-5--0-2-3--0-3--------------------------------------|
A|-0-10-9--0-3-5--0-6-5--0-2-3--0-3--------------------------------------|
D|-0-10-9--0-3-5--0-6-5--0-2-3--0-3--------------------------------------|

E|-----------------------------------------------------------------------|
B|-----------------------------------------------------------------------|
G|-----------------------------------------------------------------------|
D|-8~---5~---6^6^6^------------------------------------------------------|
A|-8~---5~---------------------------------------------------------------|
D|-8~---5~---------------------------------------------------------------|

Bridge
E|-----------------------------------------------------------------------|
B|-----------------------------------------------------------------------|
G|-----------------------------------------------------------------------|
D|-8-8--7-7--0-0--0-0--10-10-10-10---------------------------------------|
A|-8-8--7-7--0-0--0-0--10-10-10-10---------------------------------------|
D|-8-8--7-7--0-0--0-0--10-10-10-10---------------------------------------|

E|-----------------------------------------------------------------------|
B|-----------------------------------------------------------------------|
G|-----------------------------------------------------------------------|
D|-8~---5~---6^6^6^------------------------------------------------------|
A|-8~---5~---------------------------------------------------------------|
D|-8~---5~---------------------------------------------------------------|

Pre-Chorus: start with palm mute and gradually get clearer
E|-----------------------------------------------------------------------|
B|-----------------------------------------------------------------------|
G|-----------------------------------------------------------------------|
D|-----------------------------------------------------------------------|
A|-----------------------------------------------------------------------|
D|-0--10-9--0-3-5--0-5-6--0-2-3-0-3^-------------------------------------|

E|-----------------------------------------------------------------------|
B|-----------------------------------------------------------------------|
G|-----------------------------------------------------------------------|
D|-----------------------------------------------------------------------|
A|-----------------------------------------------------------------------|
D|-0--10-9--0-3-5--0-5-6--0-2-3-0-3*-------------------------------------|

E|-----------------------------------------------------------------------|
B|-----------------------------------------------------------------------|
G|-----------------------------------------------------------------------|
D|-----------------------------------------------------------------------|
A|-----------------------------------------------------------------------|
D|-0--10-9--0-3-5--0-5-6--0-2-3-0-7\-------------------------------------|

Ending
E|-----------------------------------------------------------------------|
B|-----------------------------------------------------------------------|
G|-----------------------------------------------------------------------|
D|-0-10-9--0-3-5--0-6-5--0-2-3--0-3--------------------------------------|
A|-0-10-9--0-3-5--0-6-5--0-2-3--0-3--------------------------------------|
D|-0-10-9--0-3-5--0-6-5--0-2-3--0-3--------------------------------------|
Repeat 'til its over
Добавлено: 10.08.2013
Другие материалы по этой песне:
  • Аккорды и текст

Страница создана 18.04.2012
http://primanota.ru/thousand-foot-krutch/hand-grenade-chords.htm
Привет, Гость.
Предлагаем пройти революционный курс по гитаре.
Подарок от PrimaNota.Ru, забирай!