PrimaNota.ru - самый крупный в мире бесплатный архив песенных текстов, аккордов, табулатур и нот


Thousand Foot Krutch - Earthquake - таба, видео

Регистрация Запомнить меня
Войти через:  Facebook Google Twitter Vk Yandex Mail.ru

Thousand Foot Krutch - Earthquake - таба, видео

Печатать
Просмотров: 168
e |-------------------------------------------------------------------------|
b |-------------3~----------------------------------------------------------|
g |----INTRO----------------------------------------------------------------|
d |-----------------002-03-02-03-02/3-002-03-02-00-66-002-03-02-03-02/3-002-|
a |-----------------002-03-02-03-02/3-002-03-02-00-66-002-03-02-03-02/3-002-|
D |-----------------002-03-02-03-02/3-002-03-02-00-66-002-03-02-03-02/3-002-|

e |-------------------------------------------------------------------------|
b |-------------------------------------------------------------------------|
g |-----------------------------------2~--2/3--------------------2~--2/3----|
d |-03-02-00-5/65---(x2)--0~---VERSE----------5~---0-2~--2-3~--3---------5~-|
a |-03-02-00-5/65---------0~------------------------------------------------|
D |-03-02-00-5/65---------0~------------------------------------------------|

e---------------------------------------------------------------------------|
b---------------------------------------------------------------------------|
g------------------CHORUS---------------------------------------------------|
d--0-2~--2-3~----------------0---000---000---0055555/666-0---000---000---00-|
a----------------------------0---000---000---0055555/666-0---000---000---00-|
D----------------------------0---000---000---0055555/666-0---000---000---00-|
                             *   ***   ***   **          *   ***   ***   *
e--------------------------------------------------------------------|
b--------------------------------------------------------------------|
g--------------------------------------------------------------------|
d-55555/333-0---000---000---0055555/666-0---000---000---0055555/33---|
a-55555/333-0---000---000---0055555/666-0---000---000---0055555/33---|
D-55555/333-0---000---000---0055555/666-0---000---000---0055555/33---|
            *   ***   ***   **          *   ***   ***   **
e----------------------------------------------------------------------------|
b----------------------------------------------------------------------------|
g---(intro again, only the part where you let this note ring out, palm mute)-|
d---------------------------------------------0------------------------------|
a---------------------------------------------0------------------------------|
D---------------------------------------------0------------------------------|
                                              *
e-------------------------------------------------------------------------|
b-------------------------------------------------------------------------|
g--VERSE 2------------------------------------------5~--------------------|
d----------0000--0000------000-xx-x000-xx-x[0-x0-0-3-5~-000-xx000-xx]-----|
a----------0000--0000------000-xx-x000-xx-x[0-x0-0-3-3~-000-xx000-xx](x3)-|
D----------0000--0000------000-xx-x000-xx-x[0-x0-0-3----000-xx000-xx]-----|
           ****  ****      ***     ***                  ***   ***
e------------------------------------------------------------------------|
b------------------------------------------------------------------------|
g--(do chorus 1x palmmuted then 1x normal)-------------------------------|
d-------------------------------------------000x-0000x-0000x-055555/666--|
a-------------------------------------------000x-0000x-0000x-055555/666--|
D-------------------------------------------000x-0000x-0000x-055555/666--|

e-----------------------------|
b-----------------------------|
g-----------------------------|(then 1st part of intro w/o distortion,
d-000x-0000x-0000x-055555/33--| then whole intro 2x)
a-000x-0000x-0000x-055555/33--|
D-000x-0000x-0000x-055555/33--|


Sorry if this is confusing. It's my first tab. I don't know anything about spacing and
stuff, so hopefully you can figure it out.
Добавлено: 02.07.2013
Другие материалы по этой песне:
  • Аккорды и текст

Страница создана 02.07.2013
http://primanota.ru/thousand-foot-krutch/earthquake-chords.htm
Привет, Гость.
Предлагаем пройти революционный курс по гитаре.
Подарок от PrimaNota.Ru, забирай!