PrimaNota.ru - самый крупный в мире бесплатный архив песенных текстов, аккордов, табулатур и нот


Thousand Foot Krutch - Come Along - текст песни, таба, бас-таба, видео

Регистрация Запомнить меня
Войти через:  Facebook Google Twitter Vk Yandex Mail.ru

Thousand Foot Krutch - Come Along - текст песни, таба, бас-таба, видео

Печатать
Просмотров: 208
!!Drop-D Tuning!!

Intro & Main Riff:
e[------------------------------------------------------------------]
B[------------------------------------------------------------------]
G[---------------------------------5-5-5-5---------5-5-5-5----------]
D[-5-5-5-5---------2-2-2-2---------5-5-5-5---------5-5-5-5----------]
A[-5-5-5-5-5-0-3-2-2-2-2-2-5-0-3-2-3-3-3-3-5-0-3-2-3-3-3-3-5-3-2-0-2]
D[-5-5-5-5---------2-2-2-2------------------------------------------]
Pre-Verse & Pre-Chorus:
e[-------------------------------------------------------------------]
B[-------------------------------------------------------------------]
G[-----------------5-5-5-5-5-5-5-5-----------------------------------]
D[-5-5-5-5-5-5-5-5-5-5-5-5-5-5-5-5-2-2-2-2-2-2-2-2-2-----------------]
A[-5-5-5-5-5-5-5-5-3-3-3-3-3-3-3-3-2-2-2-2-2-2-2-2-2-3-3-5-5-3-3-0-0-]
D[-5-5-5-5-5-5-5-5-----------------2-2-2-2-2-2-2-2-2-----------------]
Verse & Post-Verse/Chorus(Strum Pattern Different) & Ending:
e[-------------------------------------------------------------------]
B[-------------------------------------------------------------------]
G[-----------------5-5-5-5-5-5-5-5-------------------5-5-5-5-5-5-5-5-]
D[-5-5-5-5-5-5-5-5-5-5-5-5-5-5-5-5-2-2-2-2-2-2-2-2-2-5-5-5-5-5-5-5-5-]
A[-5-5-5-5-5-5-5-5-3-3-3-3-3-3-3-3-2-2-2-2-2-2-2-2-2-3-3-3-3-3-3-3-3-]
D[-5-5-5-5-5-5-5-5-----------------2-2-2-2-2-2-2-2-2-----------------]
Bridge:                                                 { 1st } {2nd}
e[-------------------------|---------------------------:-------:-----]
B[-------------------------|---------------------------:-------:-----]
G[-------------------------|---------------------------:-------:-----]
D[-5-0-5-0-----------------|---------------------------:-------:-0---]
A[-5-0-5-0-333333333333-3-0|-2-2-------2-2-------2-2---:-333330:-0---]
D[-5-0-5-0-----------------|5---5-5-0-2---5-5-0-0---5-5:0------:-0---]
Bridge 2:                       {      1st      } { 2nd }
e[------------|----------------:-----------------:-------------------]
B[------------|----------------:-----------------:-------------------]
G[---4-5---4-5|----------------:44444444-55555555:-4-5-5-------------]
D[-5-4-5-5-4-5|5555555555555555:44444444-55555555:-4-5-5-------------]
A[-5-2-3-5-2-3|5555555555555555:22222222-33333333:-2-3-3-------------]
D[-5-----5----|5555555555555555:-----------------:-------------------]
             pm................ ........ ........             5            5
                                                              5            5
well, there it is, and it makes it east in the intro to play, 3 instead of 5
but dont drop d tuning then and also instead of playing, 2 play, 2 ok
                                                         2       2
                                                         2       0
Добавлено: 10.07.2013
Другие материалы по этой песне:

Страница создана 22.02.2012
http://primanota.ru/thousand-foot-krutch/come-along-chords.htm
Привет, Гость.
Предлагаем пройти революционный курс по гитаре.
Подарок от PrimaNota.Ru, забирай!