PrimaNota.ru - самый крупный в мире бесплатный архив песенных текстов, аккордов, табулатур и нот


Thousand Foot Krutch - Bring Me To Life - текст песни, таба, видео

Регистрация Запомнить меня
Войти через:  Facebook Google Twitter Vk Yandex Mail.ru

Thousand Foot Krutch - Bring Me To Life - текст песни, таба, видео

Печатать
Просмотров: 535
--------------------------------------------------------------------------
                     Bring Me To Life – Thousand Foot Krutch
----------------------------------------------------------------------------
Tabbed by: Joshua Schultze
On: 4/24/2009

Tuning: Drop B – B Gb B E Ab Db

This is the new song from Thousand Foot Krutch from their cd called Welcome To 
The Masquerade coming out Fall 2009! 

  Intro 1

 Piano part then guitar with effect
e|--------------------------------------------------------------------------|
B|--------------------------------------------------------------------------|
G|--------------------------------------------------------------------------|
D|--------------------------------------------------------------------------|
A|--------------------------------------------------------------------------|
E|--0--3p0--5p0--8p0--7p0--7h8--0--3p0--5p0--10p0--8p0--5h7-----------------| 
x2 Second time don't play 8p0--5h7
           
                                                         
  Intro 2
e|--------------------------------------------------------------------------|
B|--------------------------------------------------------------------------|
G|--------------------------------------------------------------------------|
D|--1--1--3--1----0--3p0--5p0--8p0--7p0--7h8--0--3p0--5p0-------------------|
A|--1--1--3--1----0--3p0--5p0--8p0--7p0--7h8--0--3p0--5p0-------------------|
E|--1--1--3--1----0--3p0--5p0--8p0--7p0--7h8--0--3p0--5p0-------------------|

e|--------------------------------------------------------------------------|
B|--------------------------------------------------------------------------|
G|--------------------------------------------------------------------------|
D|--10p0--8p0--5h7------x2-------0--0--0--0--0--0--0--0--0--0---------------|
A|--10p0--8p0--5h7------x2-------0--0--0--0--0--0--0--0--0--0---------------|
E|--10p0--8p0--5h7------x2-------0--0--0--0--0--0--0--0--0--0---------------|
                               pm----------------------------pm

   Verse 1
e|--------------------------------------------------------------------------|
B|--------------------------------------------------------------------------|
G|--------------------------------------------------------------------------|
D|-(-0------------)-----1--3--1---(0------------)---------------------------|
A|-(-0-about 50x--)-----1--3--1---(0--about 20x-)---------------------------|
E|-(-0------------)-----1--3--1---(0------------)---------------------------|
   pm---------------pm

e|--------------------------------------------------------------------------|
B|--------------------------------------------------------------------------|
G|--------------------------------------------------------------------------|
D|----3--5--3-------(0-----------)------3--5--3-------0---------------------|
A|----3--5--3-------(0--about 20x)------3--5--3-------0---------------------|
E|----3--5--3-------(0-----------)------3--5--3-------0---------------------|
    pm-----pm                          pm------pm

       Chorus

e|--------------------------------------------------------------------------|
B|--------------------------------------------------------------------------|
G|--------------------------------------------------------------------------|
D|--3-----------------0----------------5----------------0-------------------|
A|--3-----------------0----------------5----------------0-------------------|
E|--3-----------------0----------------5----------------0-------------------|                 2x
 

   Post Chorus

e|--------------------------------------------------------------------------|
B|--------------------------------------------------------------------------|
G|--------------------------------------------------------------------------|
D|--1--3--1--0--3p0--5p0--8p0--7p0--7h8--0--3p0--5p0------------------------|
A|--1--3--1--0--3p0--5p0--8p0--7p0--7h8--0--3p0--5p0------------------------|
E|--1--3--1--0--3p0--5p0--8p0--7p0--7h8--0--3p0--5p0------------------------|


e|--------------------------------------------------------------------------|
B|--------------------------------------------------------------------------|
G|--------------------------------------------------------------------------|
D|--10p0--8p0--5h7----0--3p0--5p0--8p0--7p0--7h8----------------------------|
A|--10p0--8p0--5h7----0--3p0--5p0--8p0--7p0--7h8----------------------------|
E|--10p0--8p0--5h7----0--3p0--5p0--8p0--7p0--7h8----------------------------|


e|--------------------------------------------------------------------------|
B|--------------------------------------------------------------------------|
G|--------------------------------------------------------------------------|
D|--------------------------------------------------------------------------|
A|--------------------------------------------------------------------------|
E|--0--3p0--5p0--10p0--8p0--5h7---------------------------------------------|

  Verse 2

 Short piano intro then guitar

e|--------------------------------------------------------------------------|
B|--------------------------------------------------------------------------|
G|--------------------------------------------------------------------------|
D|--3--3--5--3----(--0-----------)--1--3--1--(--0-----------)---------------|
A|--3--3--5--3----(--0--about 20x)--1--3--1--(--0-about20x--)---------------|
E|--3--3--5--3----(--0-----------)--1--3--1--(--0-----------)---------------|
       pm---------pm


e|-------------------------------------------------------------------------|
B--------------------------------------------------------------------------|
G|-------------------------------------------------------------------------|
D|--1--3--1---(--0-----------)---------------------------------------------|
A|--1--3--1---(--0--about 30x)---------------------------------------------|
E|--1--3--1---(--0-----------)---------------------------------------------| pm-------pm

   Chorus    

e|-------------------------------------------------------------------------|
B|-------------------------------------------------------------------------|
G|-------------------------------------------------------------------------|
D|--3-----------------0----------------5----------------0------------------|
A|--3-----------------0----------------5----------------0------------------|
E|--3-----------------0----------------5----------------0------------------|  2x


Bridge

e|-------------------------------------------------------------------------|
B|-------------------------------------------------------------------------|
G|-------------------------------------------------------------------------|
D|--8--0--3--5--1----8--0--3--5--1-----------------------------------------|
A|--8--0--3--5--1----8--0--3--5--1-----------------------------------------|
E|--8--0--3--5--1----8--0--3--5--1-----------------------------------------|

e|-------------------------------------------------------------------------|
B|-------------------------------------------------------------------------|
G|-------------------------------------------------------------------------|
D|-------------------------------------------------------------------------|
A|-------------------------------------------------------------------------|
E|--0--3p0--5p0--8p0--7p0--7h8--0--3p0--5p0--10p0--8p0--5h7----------------|  
x2  Second time don't play 8p0--5h7
                                                                    
  
e|-------------------------------------------------------------------------|
B|-------------------------------------------------------------------------|
G|-------------------------------------------------------------------------|
D|--3--3--5--3----0--3p0--5p0--8p0--7p0--7h8--0--3p0--5p0------------------|
A|--3--3--5--3----0--3p0--5p0--8p0--7p0--7h8--0--3p0--5p0------------------|
E|--3--3--5--3----0--3p0--5p0--8p0--7p0--7h8--0--3p0--5p0------------------|

e|-------------------------------------------------------------------------|
B|-------------------------------------------------------------------------|
G|-------------------------------------------------------------------------|
D|--10p0--8p0--5h7---------------------------------------------------------|
A|--10p0--8p0--5h7---------------------------------------------------------|
E|--10p0--8p0--5h7---------------------------------------------------------|

       Chorus
e|-------------------------------------------------------------------------|
B|-------------------------------------------------------------------------|
G|-------------------------------------------------------------------------|
D|--3-----------------0----------------5----------------0------------------|
A|--3-----------------0----------------5----------------0------------------|
E|--3-----------------0----------------5----------------0------------------|   2x
 
     Outro

e|-------------------------------------------------------------------------|
B|-------------------------------------------------------------------------|
G|-------------------------------------------------------------------------|
D|--(--0-----------------)-------------------------------------------------|
A|--(--0---about 15x-----)------------------------------------------------|
E|--(--0-----------------)-------------------------------------------------|


   
| h  hammer-on
| p  pull-off
| pm-  Palm Mute
=============================================================================== 
Добавлено: 29.07.2013
Другие материалы по этой песне:

Страница создана 29.07.2013
http://primanota.ru/thousand-foot-krutch/bring-me-to-life-chords.htm
Привет, Гость.
Предлагаем пройти революционный курс по гитаре.
Подарок от PrimaNota.Ru, забирай!