PrimaNota.ru - самый крупный в мире бесплатный архив песенных текстов, аккордов, табулатур и нот


Thought Beneath Film - If I Could Fix You You Know That I Would - бас-таба, видео

Регистрация Запомнить меня
Войти через:  Facebook Google Twitter Vk Yandex Mail.ru

Thought Beneath Film - If I Could Fix You You Know That I Would - бас-таба, видео

Печатать
Просмотров: 71
Band: Thought Beneath Film
Song: If I Could Fix You (You Know That I Would)
Album: Detours
Website: http://thoughtbeneathfilm.ca/

Tuning: 1/2 Step Down

INTRO: TACET

VERSE 1:

Gb:---------------------------------------------|
Db:---------------------------------------------|
Ab:-------------------------5/10-10-9-9-7-7-5-7-|
Eb:---------------------------------------------|

Gb:---------------------------------------------------------------|
Db:---------------------------------------------------------------|
Ab:-5h7-5-3-0-3-3---3-3---0-5h7-5-3-0-3-3---3-3---3-3---0-3-5-5---|
Eb:-------------------------------------------------------------0-|

Gb:---------------------------------------------------------|
Db:---------------------------------------------------------|
Ab:-------------------------------------5/10-10-9-9-7-7-5-7-|
Eb:-3-3---3-3---3-3---3-3---3-3---3-3-----------------------|

Gb:-----------------------------------------------------------|
Db:-----------------------------------------------------------|
Ab:-5h7-5-3-0-3-3---3-3---0-5h7-5-3-0-3-3---3-3---------------|
Eb:-----------------------------------------------10\---------|

CHORUS 1:

Gb:-----------------------------------------------------------------|
Db:-----------------------------------------------------------------|
Ab:-3-3-3-3-3-3-3-3-3-3-3-3-3---2-------------------5-5-5-5-x-x-0---|
Eb:---------------------------------3-3-3-3-3-3-3-3-----------------|

Gb:-----------------------------------------------------------------|
Db:-----------------------------------------------------------------|
Ab:-3-3-3-3-3-3-3-3-3-3-3-3-3---2-------------------5-5-5-5-x-x-0---|
Eb:---------------------------------3-3-3-3-3-3-3-3-----------------|

PRE-VERSE:

Gb:-------------12\-------------12\-------------12\-----------|
Db:-----------------------------------------------------------|
Ab:----------10--------------10--------------10---------------|
Eb:-3-3-------------3-3-------------3-3-------------3---------|

VERSE 2:

Gb:---------------------------------------------------------|
Db:---------------------------------------------------------|
Ab:-------------------------------------5/10-10-9-9-7-7-5-7-|
Eb:-3-3---3-3---3-3---3-3---3-3---3-3-----------------------|

Gb:------------------------------------------------------------------|
Db:------------------------------------------------------------------|
Ab:-5h7-5-3-0-3-3---3-3---0-5h7-5-3-0-3-3---3-3---0-3-3-5-5-7-7-9-12-|
Eb:------------------------------------------------------------------|

Gb:--------------------------------------------------|
Db:--------------------------------------------------|
Ab:-10-10-10-10-10-10-10-10-10-10-10-9-10-10h12-10-9-|
Eb:--------------------------------------------------|

Gb:--------------------------------------------|
Db:--------------------------------------------|
Ab:-10-10-10-10-10-10-10-9-9h10-10-9-9-7-7-5-7-|
Eb:--------------------------------------------|

Gb:------------------------------------------------------------------|
Db:------------------------------------------------------------------|
Ab:-5h7-5-3-0-3-3-3-0-3-3-3-0-5h7-5-3-0-3-3-3-0-3-3-3-0--------------|
Eb:-----------------------------------------------------10\----------|

CHORUS 2:

Gb:-----------------------------------------------------------------|
Db:-----------------------------------------------------------------|
Ab:-3-3-3-3-3-3-3-3-3-3-3-3-3---2-------------------5-5-5-5-x-x-0---|
Eb:---------------------------------3-3-3-3-3-3-3-3-----------------|

Gb:-----------------------------------------------------------------|
Db:-----------------------------------------------------------------|
Ab:-3-3-3-3-3-3-3-3-3-3-3-3-3---2-------------------5-5-5-5-5\------|
Eb:---------------------------------3-3-3-3-3-3-3-3-----------------|

Gb:-----------------------------------------------------------------|
Db:-----------------------------------------------------------------|
Ab:-3-3-3-3-3-3-3-3-3-3-3-3-3---2-------------------5-5-5-5-x-x-0---|
Eb:---------------------------------3-3-3-3-3-3-3-3-----------------|

Gb:-----------------------------------------------------------------|
Db:-----------------------------------------------------------------|
Ab:-3-3-3-3-3-3-3-3-3-3-3-3-3---2-------------------5-5-5-5-5\------|
Eb:---------------------------------3-3-3-3-3-3-3-3-----------------|

BRIDGE:

Gb:--------------------------------------7---7-----------7---7-------|
Db:------------------------------------------------------------------|
Ab:-7---10---9---3---3-3-0-3-5-3-3/5---5---5---5-0-5---5---5---0-5-6-|
Eb:------------------------------------------------------------------|

Gb:--------------------------------------7---7-----------7---7-------|
Db:------------------------------------------------------------------|
Ab:-7---10---9---3---3-3-0-3-5-3-3/5---5---5---5-0-5---5---5---0-5-6-|
Eb:------------------------------------------------------------------|

Gb:--------------------------------------7---7-----------7---7-------|
Db:------------------------------------------------------------------|
Ab:-7---10---9---3---3-3-0-3-5-3-3/5---5---5---5-0-5---5---5---0-5-6-|
Eb:------------------------------------------------------------------|

Gb:------------------------------------------------------------------------|
Db:----------------------------------------------7-7/12---12-12-12---0-12\-|
Ab:-7---10---9---3---3-3-0-3-5-3-3/5---5-5-5-5-5---------------------------|
Eb:------------------------------------------------------------------------|

OUTRO:

Gb:-------------12-0-0-12\---------|
Db:--------------------------------|
Ab:--------------------------------|
Eb:-3-3---3-3----------------------|
Добавлено: 27.06.2013
Другие материалы по этой песне:
  • Аккорды и текст

Страница создана 27.06.2013
http://primanota.ru/thought-beneath-film/if-i-could-fix-you-you-know-that-i-would-chords.htm
Привет, Гость.
Предлагаем пройти революционный курс по гитаре.
Подарок от PrimaNota.Ru, забирай!