PrimaNota.ru - самый крупный в мире бесплатный архив песенных текстов, аккордов, табулатур и нот


Those Dancing Days - Ill Be Yours - таба, видео

Регистрация Запомнить меня
Войти через:  Facebook Google Twitter Vk Yandex Mail.ru

Those Dancing Days - Ill Be Yours - таба, видео

Печатать
Просмотров: 73
Artist : Those Dancing Days
Track  : "I'll Be Yours"

Tuning : EADGBe (StAnDaRd)
Capo   : Nope

Tabbed By : Chester Abellera (^-^)




Chords : (Simple but colourful and catchy 3 chord progression)

    A    D    Bm             A    D    Bm           D
e---5----x----7---|      |---0----2----2---|     |--10----| <- This D chord
B---5----7----7---|      |---2----3----3---|     |--10----| is played in the
G---6----7----7---|  or  |---2----2----4---|     |--11----| final bar of the
D---7----7----9---|      |---2----0----4---|     |--12----| Chorus and is
A---7----5----9---|      |---0----x----2---|     |--12----| also played in the
E---5----x----7---|      |---x----x----x---|     |--10----| Bridge along with
                                                          the A chord






The little riff that plays    e---------------|    |---------------------| 
in the Intro and the Verses.  B-------5---5---|    |-------5---7-5---5---|
           ----->             G---------6-----| -> |---------6-----6-----|
                              D---7-7---------|    |---7-7---------------|
                              A---------------|    |---------------------|
                              E---------------|    |---------------------|






e-------|   |---------------| Strum these chords once or every now and then in
B---5---|   |---5-----------| the Pre-Chorus.
G---6---|   |---7-----------|
D---7---|   |---7-----<-------Strum this chord multiple times right when
A-------|   |---------------|      the Pre-Chorus is gonna end (Before you strum
E-------|   |---------------|      the first A chord of the Chorus).






Chorus : A to Bm, then A to D




Here are the separate notes that Linnea sings in the Chorus :

    "I'll   Be  Yours And  You're Mi---ne"
e---------------------------------------------|
B---------------------------------10----------|
G----------------------9-----11--------11-----|
D-----7-----9-----11--------------------------|
A---------------------------------------------|
E---------------------------------------------|


e-----------------------------------------------------------------|
B---10----10----------10----10----------10----10-----10-----------|
G-----11----11----9-----11----11----9-----11----11-------11---9---|
D-----------------------------------------------------------------|
A-----------------------------------------------------------------|
E-----------------------------------------------------------------|






Bridge : A to D




And here are the separate notes that Lisa plays on the Hammond Organ
in the Bridge :

e-----5-----4-----5---4-----------|
B-------------------------5-------|
G---------------------------6-----|
D---------------------------------|
A---------------------------------|
E---------------------------------|


e-----5-----4-----5---4-5---4-----------|
B-----------------------------5---------|
G---------------------------------6-----|
D---------------------------------------|
A---------------------------------------|
E---------------------------------------|

e-----5-----4-----5---4-----------|
B-------------------------5-------|
G---------------------------6-----|
D---------------------------------|
A---------------------------------|
E---------------------------------|


e-----5-----4-----5---4-5---4--------------|
B-----------------------------5------------|
G------------------------------------6-----|
D------------------------------------------|
A------------------------------------------|
E------------------------------------------|




Repeat Chorus (4x)

End on A =)
Добавлено: 05.10.2013
Другие материалы по этой песне:
  • Аккорды и текст

Страница создана 05.10.2013
http://primanota.ru/those-dancing-days/ill-be-yours-chords.htm
Привет, Гость.
Предлагаем пройти революционный курс по гитаре.
Подарок от PrimaNota.Ru, забирай!