PrimaNota.ru - самый крупный в мире бесплатный архив песенных текстов, аккордов, табулатур и нот


Thornley - Clever - текст песни, таба, видео

Регистрация Запомнить меня
Войти через:  Facebook Google Twitter Vk Yandex Mail.ru

Thornley - Clever - текст песни, таба, видео

Печатать
Просмотров: 172
-----------------------------------------------------------
                             Clever - Thornley
-----------------------------------------------------------
Tabbed by: Mikey Dyer
Email:

Tuning: B F# B D# E G#

G|--------10----12-10----10--------------------------------|
E|-----13----13-------13-----------------------------------|
D|--11-----------------------------------------------------|
B|---------------------------------------------------------|
F|---------------------------------------------------------|
B|---------------------------------------------------------|

e|---------------------------------------------------------|
B|---------------------------------------------------------|
G|---------------------------------------------------------|
D|---------------------------------------------------------|
A|--7-7--7910---3-3--50----------3b------------------------|
E|--7-7--7910---3-3--50------33-3--------------------------|

e|---------------------------------------------------------|
B|---------------------------------------------------------|
G|---------------------------------------------------------|
D|---------------------------------------------------------|
A|-77-33-0--7-7—-7910---3-3--05----------------------------|
E|-77-33-0--7-7--7910---3-3--05----------------------------|

e|---------------------------------------------------------|
B|---------------------------------------------------------|
G|---1-----1----2-----4------------------------------------|
D|---------------------------------------------------------|
A|---------------------------------------------------------|
E|-22--0202--033--0505-------------------------------------|

e|---------------------------------------------------------|
B|---------------------------------------------------------|
G|-5--7----------------------------------------------------|
D|-5--7--7--0----------------------------------------------|
A|-3--5--7--0----------------------------------------------|
E|-------7--0----------------------------------------------|

| /  slide up
| \  slide down
| h  hammer-on
| p  pull-off
| ~  vibrato
| +  harmonic
| x  Mute note
===============================================================================
Добавлено: 27.02.2012
Другие материалы по этой песне:
  • Аккорды и текст

Страница создана 27.02.2012
http://primanota.ru/thornley/clever-chords.htm
Привет, Гость.
Предлагаем пройти революционный курс по гитаре.
Подарок от PrimaNota.Ru, забирай!