PrimaNota.ru - самый крупный в мире бесплатный архив песенных текстов, аккордов, табулатур и нот


Thornley - Another Memory - текст песни, таба, видео

Регистрация Запомнить меня
Войти через:  Facebook Google Twitter Vk Yandex Mail.ru

Thornley - Another Memory - текст песни, таба, видео

Печатать
Просмотров: 142
Уроки эстрадного вокала в Санкт-Петербурге
Thornley
Another Memory

***Previous Posted version only contains intro and verse...this is the complete tab***

*sweet_inc*


Open D: low-high; D-A-D-F#-A-D...1/2 step down

intro x2
d|-----------------------------|
A|-----------------------------|
F|-0-0-0-1-1-1-3-3-3-3-3-3-----|
D|-0-0-0-0-0-0-0-0-0-0-0-0-----|
A|-0-0-0-1-1-1-3-3-1-1-3-3-----|
D|-----------------------------|

verse
|-----------------------------|
|-----------------------------|
|-0-0-0-1-1-1-3-3-3-3-3-3-----|
|-0-0-0-0-0-0-0-0-0-0-0-0-----|
|-0-0-0-1-1-1-3-3-1-1-3-3-----|
|-----------------------------|

|--------------------------------------|
|--------------------------------------|
|-0-0-0-1-1-1-3-3-3-3-3-3--------------|
|-0-0-0-0-0-0-0-0-0-0-0-0--------------|
|-0-0-0-1-1-1-3-3-1-1-3-3--5-3-0-------|
|--------------------------------5-4---|

|--------------------------------------|
|--------------------------------------|
|-0-0-0-1-1-1-3-3-3-3-3-3--------------|
|-0-0-0-0-0-0-0-0-0-0-0-0-2-2-2-3-3-3--|
|-0-0-0-1-1-1-3-3-1-1-3-3-2-2-2-3-3-3--|
|-------------------------2-2-2-3-3-3--|

|-----------------------------|
|-----------------------------|
|-0-0-0-1-1-1-3-3-3-3-3-3-----|
|-0-0-0-0-0-0-0-0-0-0-0-0-----|
|-0-0-0-1-1-1-3-3-1-1-3-3-----|
|-----------------------------|

|--------------------------------------|
|--------------------------------------|
|-0-0-0-1-1-1-3-3-3-3-3-3--------------|
|-0-0-0-0-0-0-0-0-0-0-0-0--------------|
|-0-0-0-1-1-1-3-3-1-1-3-3--5-3-0-------|
|--------------------------------5-4---|

|--------------------------------------|
|--------------------------------------|
|-0-0-0-1-1-1-3-3-3-3-3-3--------------|
|-0-0-0-0-0-0-0-0-0-0-0-0-2-2-2-3-3-3--|
|-0-0-0-1-1-1-3-3-1-1-3-3-2-2-2-1-1-1--|
|-------------------------2-2-2--------|

chorus
|-----------------------------------------|
|-----------------------------------------|
|-----------------------------------------|
|------------------5-5-5-5----------------|
|--0-0-0-0-3-3-3-3-3-3-3-3-5-5-5-5--------|
|--0-0-0-0-3-3-3-3---------5-5-5-5--------|

|-----------------------------------------|
|-----------------------------------------|
|--------------------------6-5------------|
|------------------5-5-5-5-----3-2--------|
|--0-0-0-0-3-3-3-3-3-3-3-3----------------|
|--0-0-0-0-3-3-3-3------------------------|

|-----------------------------------------|
|-----------------------------------------|
|-----------------------------------------|
|------------------5-5-5-5----------------|
|--0-0-0-0-3-3-3-3-3-3-3-3-5-5-5-5--------|
|--0-0-0-0-3-3-3-3---------5-5-5-5--------|

|-----------------------------------------|
|-----------------------------------------|
|-----------------------------------------|
|------------------5-5-5-5-5-5--3345-5-5--|
|--0-0-0-0-3-3-3-3-3-3-3-3-3-3--3345-5-5--|
|--0-0-0-0-3-3-3-3--------------3345-5-5--|

solo
|-------------------------------|
|-------------------------------|
|-------------------------------|
|-0-0-0-0-1-1-1-1-3-3-3-3-------|
|-0-0-0-0-1-1-1-1-3-3-3-3-------|
|-0-0-0-0-1-1-1-1-3-3-3-3-------|

interlude
|-------------------------------------------------|
|-------------------------------------------------|
|-------------------------------------------------|
|-3-3--3-3-3--3-----------------------------------|  x2
|-1-1--1-1-1--1-5-5--5-5-5--5-6-6--6-7-7-7-7------|
|---------------5-5--5-5-5--5-6-6--6-7-7-7-7------|

then
|------------------|
|------------------|
|------------------|
|-3-3-3-3-3--------|
|-1-1-1-1-1--------|
|------------------|

chorus til out
Добавлено: 04.05.2012
Другие материалы по этой песне:
  • Аккорды и текст

Страница создана 04.05.2012
http://primanota.ru/thornley/another-memory-chords.htm
Привет, Гость.
Предлагаем пройти революционный курс по гитаре.
Подарок от PrimaNota.Ru, забирай!