PrimaNota.ru - самый крупный в мире бесплатный архив песенных текстов, аккордов, табулатур и нот


Thompson Twins - Love On Your Side - бас-таба, видео

Регистрация Запомнить меня
Войти через:  Facebook Google Twitter Vk Yandex Mail.ru

Thompson Twins - Love On Your Side - бас-таба, видео

Печатать
Просмотров: 90
Авторы: Alannah Currie, Tom Bailey, Joe Leeway

Tabbed by: bassm99 
E-mail: alanmatthews1966@yahoo.co.uk

Tuning: E, A, D, G

“Love On Your Side” from the album “Quick Step & Side Kick” (1983)
Written by Bailey/Currie/Leeway

Intro & Verse: 

G|-------------------------------------------------------------------------|
D|-------------------------------------------------------------------------|
A|--3-4-5----3-4-5----3-5----------5---------------------------------------|
E|---------------------------1--3------------------------------------------|

Chorus:

G|-------------------------------------------------------------------------|
D|-------------------------------------------------------------------------|
A|-----1--3-------1--3-3---------------------------------------------------|
E|1-3----------3-----------------------------------------------------------|
Добавлено: 05.12.2013
Другие материалы по этой песне:
  • Аккорды и текст

Страница создана 05.12.2013
http://primanota.ru/thompson-twins/love-on-your-side-chords.htm
Привет, Гость.
Предлагаем пройти революционный курс по гитаре.
Подарок от PrimaNota.Ru, забирай!