PrimaNota.ru - самый крупный в мире бесплатный архив песенных текстов, аккордов, табулатур и нот


Thomas Oliver - Jurassic Park - таба, видео

Регистрация Запомнить меня
Войти через:  Facebook Google Twitter Vk Yandex Mail.ru

Thomas Oliver - Jurassic Park - таба, видео

Печатать
Просмотров: 21
Artist: Thomas Oliver(John Williams)
Song:Jurassic park
Tabbed by Mason Spurry
Email: mason.spurry@gmail.com     

This only shows you how to play the first half,but someday I might.I have listened to it this
song at slow speeds for a long time and I think this is 99% percent accurate and every note you see 
can be heard in the song. but I might have made a few mistakes. I also will probably make many updates 
possibly including new parts  

things you need:
-you can use any guitar really it doesn't have to be a Weissenborn, but if you are using an acoustic or 
electric. just set it in your lap and use you fingers or thumb as a slide. 
-this is in open E flat or D sharp tuning. 


what things mean          few notes/might be confusing:
/=slide up                 -whenever you see a slide back and fourth like this 5\4/5 only pick the first  
\=slide down                note 
p=pulloff or let go        -for most of the song you should just be baring the strings you shouldn't have 
 with the slide             to move too much
h=hammer on with slide     -you also want to add vibrato to almost every note with the slide
s=strum                    - 
f=finger pick
        s         f   s      f   s      f  s       f  s        s          s      f   f
Eb|-----------------------------------------------------------------------------------
Bb|-----------------------------------------------------------------------------------
G |-----------------------------------------------------------------------------------
Eb|--------------------------------------------------5--5-----------4-p0------------------
Bb|-----4/5-------5-\4/-5------5-\4/-5------7--7--------5-----------0--------7----4---0---      
Eb|-----0---------------5------------0---------7--------5-----------0--------7------------

        s          s              s         s       f  s      f  s
Eb|-----------------------------------------------------------------------------------
Bb|-----------------------------------------------------------------------------------
G |-----------------------------------------------------------------------------------
Eb|-----4-p0----------------------7-p0------5-------4--4------------------------------
Bb|-----0--------7----------------0---------5----------0--------7--7------------------
Eb|-----0--------7----------------0---------5----------0-----------7------------------

       f   f       f   f        f   f       f  s      f  s             s  f     s
Eb|---------------------------------------------------------5--5-------------4-p0-----------
Bb|----5-\4/-5-------5-\4/-5--------5-\4/-5-------7--7---------5-------------0--------7-----
G |--------------------------------------------------7---------5-------------0--------7-----
Eb|--------------------------------------------------7---------5-------------0--------7-----
Bb|--------------------------------------------------7---------5-------------0--------7-----
Eb|--------------0-----------5------------0----------7---------5-------------0--------7-----

       f   f     s        s          s        s     f  s        f  s
Eb|--------------4-p0----------------7-p0-----5-----4--4------------------------------
Bb|--------------0--------7----------0--------5--------0--------7--7------------------
G |----7---------0--------7----------0--------5--------0-----------7------------------
Eb|--------7-----0--------7----------0--------5--------0-----------7------------------
Bb|--------------0--------7----------0--------5--------0-----------7------------------
Eb|--------------0--------7----------0--------5--------0-----------7------------------
 on this part i play the open high B string instead
of the middle Eb. it sounds better to me. but its the same note             
                x2 
                \/                                                                             
Eb|---0-----0----------------|--0--------0--0------------------     
Bb|--------------------------|--------------------0------------       
G |------7-------------------|-----7--7------------------------ all finger picking
Eb|---------------7---\-5----|--------------0-----------0------          
Bb|------------0-----------5-|-----------------------0-----0--|
Eb|---------0--------0--5----|--------0-----------0------------
 
                                            2x|
Eb|---------------------|--0-----0---------------|
Bb|----3----------------|------------------------|
G |---h3--3------/-7----|-----7------------------|
Eb|---h3-----3---/----7-|--------------7---\-5---|
Bb|---h3--------3/------|-----------0-----------5|
Eb|----3---------/-7----|--------0--------0--5---|


Eb|---0--------0--0-----------------0----------------
Bb|---------------------0----------------------------
G |------7--7----------------------h7-----------7----
Eb|---------------0-----------0----h7-----7--------7-
Bb|------------------------0-----0-h7--7-----7-------
Eb|---------0-----------0-----------7-----------7----

                  2x 
Eb|---0-----0----------------|---0-----0-----------------5--4--5-p0-------------
Bb|--------------------------|--------------------------------------------------
G |------7-------------------|------7--------3--2--3----------------------------
Eb|---------------7---\-5----|---------------------------------------2--0--2---|
Bb|------------0-----------5-|------------0-----------0-----------0-----------0|
Eb|---------0--------0--5----|---------0-----------0-----------0-----------0---|
 
                                                                           s                
Eb|---0-----0------------------0-----0--------0--------------------|
Bb|------4--------h5-----------------------------------------------|
G |---------------h5--------------5/--------------------7-/--12----|
Eb|----------------5-----------5---/----7--------7------7-/--12----|
Bb|------------0--h5--5-----5------/-------7--------7---7-/--12----|     
Eb|---------0-----h5-----5---------/-7-----7-----7------7-/--12----|

if your playing with a slide guitar put your picking hand behind the slide .but on acoustic just play the
5 7 and 12th fret harmonics. makes the same sound. but the random 7 on the g string is played normally 

            2x                                                 s    s f f     
Eb|-----12------------------------|--------12----------------\--------0------/-12-----
Bb|-12------12------12------------|---12-------12------12----\-5--/----------/-12-----
G |-------------12------12------12|----------------12-----12-\-5--/-7---7----/-12-----
Eb|-------------------------12----|--------------------------\-5--/-7--------/-12-----
Bb|-------------------------------|--------------------------\-5--/-7--------/-12-----
Eb|-------------------------------|--------------------------\----/-7--------/-12-----

             3x
Eb|-----------12---------------------|-----------12---------
Bb|-------12------12------12---------|-------12------12----- all finger picking
G |---12--------------12------12-----|---12--------------12- from here
Eb|--------------------------------12|----------------------
Bb|----------------------------------|----------------------
Eb|----------------------------------|----------------------   


Eb|---------------------------------------------------------------------------
Bb|--5-\4/-5-----------------5-\4/-5-----------------5-\4/-5--------7--7------
G |-----------------0-----------------------5---------------------------------
Eb|--------------0-----0-----------------5-----5-----------------0-----------7
Bb|-----------0-----------0-----------5-----------5-----------0-----------7---
Eb|--------0-----------------0-----5-----------------5-----0-----------7------


Eb|----5--5------------------4-p0--------------------4-p0-------------------
Bb|--------------------------------7-----------------------7----------------
G |----------------5------------------------7-------------------------------
Eb|-------------5-----5------------------7-----7-----------------7--------7-
Bb|----------5-----------5------------7-----------7-----------7--------7----
Eb|-------5------------------0-----7-----------7-----0-----7--------7-------


Eb|---7-p0--5--------4--4-----------------------------
Bb|-------------------------------7--7-----------------
G |-------------------------------------------7--------
Eb|---------------5-----------0------------7-----7-----
Bb|------------5-----------0------------7-----------7--
Eb|---0-----5-----------0------------7-----------------


Eb|--------------------------------------------------------------------7-----5-\4-/5--
Bb|--5-\4/-5-----------------5-\4/-5-----------------5-\4/-5-----0--------------------
G |-----------------------------------------------------------------------------------
Eb|--------------0-----------0-----------5-----------5-----------0-----------0--------  
Bb|-----------0-----0-----0-----0-----5-----5-----5-----------0-----0-----0-----0-----
Eb|--------0-----------0-----------5-----------5-----------0-----------0-----------0--
           zig    zag  zig    zag    zig  zag   zig        zig   zag   zig    zag

Eb|-----------------7-----5--------4--------7------------------------7-----------------
Bb|--------------------7--------------7--------7--10--------------------7--10--------9-
G |------------------------------------------------------------------------------------
Eb|-----0-----------0-----------0--0--------7-----------10-----------------------10----
Bb|--0-----0-----0-----------0-----------7-----------10----10----10-----------10-------
Eb|-----------0-----------0-----------7--------7--10----------10-----------10----------

                                              2x
Eb|----------7--9--11-------11---11|-12-11-12----7-----5---|-12-11-11-12-12----7-----0-
Bb|----------7-----0--------0----0-|-0--0--0-----------5---|-0--0--0--0--0-----0-----0-
G |---10---------------------------|-----------------------|---------------------------
Eb|------10------------------------|-------------0---------|-------------0-----------0-   
Bb|----------------0--0--0-----0---|----------0-----0-----5|----------0-----0-----0----
Eb|---10---------------------------|-------0-----------5---|-------0-----------0-------
                                 
                                 2x
Eb|---10----------------|-12-11-12----7-----5---|-12-11-11-12-12----7-----0------------
Bb|---10----------------|-0--0--0-----------5---|-0--0--0--0--0-----0-----0------------
G |---------------------|-----------------------|--------------------------------------
Eb|---------10----------|-------------0---------|-------------0-----------0------------
Bb|0-----10----10----10-|----------0-----0-----5|----------0-----0-----0-----0---------
Eb|---10----------10----|-------0-----------5---|-------0-----------0------------------
                                 
                          2x
Eb|-12----12----11---|-12-11-12----7-----5----|-12-11-11-12-12----5-----2-p0----------
Bb|-0-----0-----0----|-0--0--0-----------5----|-0--0--0--0--0-----5-----0-------------
G |------------------|------------------------|---------------------------------------
Eb|------------------|-------------0----------|-------------0-----------0-------------
Bb|-0--0--0--0--0--0-|----------0-----0-----5-|----------0-----0-----0-----0----------
Eb|------------------|-------0-----------5----|-------0-----------0-------------------


Eb|--0--------0--------0--------------------------------------------------------------
Bb|-----------------------------------------------------------------------------------
G |-h7-----------------------7--------7---------7/-12----0-----------------------------
Eb|-h7--7--------7--------7-h7--7--------7------7/-12----0-----------------------------
Bb|-h7-----7--------7-------h7-----7--------7---7/-12----0-----------------------------
Eb|--7-----7-----7-----7-----7-----7-----7------7/-12----0-----------------------------



                             to be continued...maybe











Добавлено: 28.05.2016
Вам также может быть интересно:
Другие материалы по этой песне:
  • Аккорды и текст

Страница создана 28.05.2016
http://primanota.ru/thomas-oliver/jurassic-park-chords.htm
Привет, Гость.
Предлагаем пройти революционный курс по гитаре.
Подарок от PrimaNota.Ru, забирай!