PrimaNota.ru - самый крупный в мире бесплатный архив песенных текстов, аккордов, табулатур и нот


Thomas Miller - Oh The Blood - таба, видео

Регистрация Запомнить меня
Войти через:  Facebook Google Twitter Vk Yandex Mail.ru

Thomas Miller - Oh The Blood - таба, видео

Печатать
Просмотров: 59
-------------------------------------------------------------------------------
                             oh the blood - thomas miller
-------------------------------------------------------------------------------
Tabbed by:
E-mail:
key of G
Tuning:E-A-D-G-B-e

e|---------------------------------------------------------------------------|
B|---------------------------------------------------------------------------|
G|-----------------------0-----------------------------------------------0---|
D|---------0----2--4-----2------------0--------------------0--2------4---2---|
A|-2--3---------3-------------2----3-------2--0---2---3-------3--------------|
E|---------3--------------------------3-------2------------3-----------------|
   o the blood crimson love price of life demand shameful sin placed on him 
e|---------------------------------------------------------------------------|
B|-----------0---------------------------------------------------------------|
G|--0----0-------2-0--0------------------------------------------------------|
D|--2--------2---------------------------------------------------------------|
A|--------------------2------------------------------------------------------|
E|---------------------------------------------------------------------------|
   the hope of every man 
e|---------------------------------------------------------------------------|
B|-------------------0---------------------------0----------------------0----|
G|---------0----2-------2-0------0---0-------2-------2-0--------0--0-------2-|
D|------0--0----0----0--0-----2------0--0----0---0---0------2------0----0----|
A|------------------------3---3------------------------3----3--------------3-|
E|---------------------------------------------------------------------------|
chorus: o the blood of Jesus washes me the blood of Jesus shed for me what a 
e|---------------------------------------------------------------------------|
B|--1--0------------1---0----------------------0-----------------------------|
G|---------0-----------------0-------0----2-------2--0----0--0---------------|
D|--2--0-------0----2---0--------2--------0----0--0-----2--------------------|
A|---------2-----------------3---3---3---------------3--3----2---------------|
E|---------------------------------------------------------------------------|
   sacrifice that saved my life yes the blood it is my victory 
e|------------------------------------------------------------------------------|
B|------3--3----3----1--0----0--3--3----3----1--0----0---3--3-----3---1--0----0-|
G|--------------0----0------------------0----0--------------------0---0---------|
D|------4--4------------0----0--4--4-----------------0---4--4-----------------0-|
A|------------------------------------------------------------------------------|
E|------------------------------------------------------------------------------|
bridge: o the blood of the lamb o the blood of the lamb oh the blood of the lamb
e|---------------------------------------------------------------------------|
B|--0---0----1-----3---1--0----0----0------1-0------------1----0-------------|
G|---------------------0---------------2--------0------------------0-------0-|
D|--0---0----2-----4-----------0----0------2-0-------0----2----0-------2-----|
A|-------------------------------------3--------2------------------3---3---3-|
E|---------------------------------------------------------------------------|
   the precious blood of the lamb what a sacrifice that saved my life yes the
e|---------------------------------------------------------------------------|
B|--------0------------------------------------------------------------------|
G|---2-------2--0----0--0----------------------------------------------------|
D|---0----0--0-----2---------------------------------------------------------|
A|--------------3--3----2----------------------------------------------------|
E|---------------------------------------------------------------------------|
   blood it is my victory



************************************

| /   slide up
| \   slide down
| h   hammer-on
| p   pull-off
| ~   vibrato
| +   harmonic
| x   Mute note
| b   Bend
| pb  Pre-bend
| br  Bend release
| pbr Pre-bend release
| brb Bend release bend

************************************
Добавлено: 18.12.2015
Другие материалы по этой песне:
  • Аккорды и текст

Страница создана 18.12.2015
http://primanota.ru/thomas-miller/oh-blood-chords.htm
Привет, Гость.
Предлагаем пройти революционный курс по гитаре.
Подарок от PrimaNota.Ru, забирай!