PrimaNota.ru - самый крупный в мире бесплатный архив песенных текстов, аккордов, табулатур и нот


Thomas Dybdahl - Solitude - текст песни, таба, видео

Регистрация Запомнить меня
Войти через:  Facebook Google Twitter Vk Yandex Mail.ru

Thomas Dybdahl - Solitude - текст песни, таба, видео

Печатать
Просмотров: 114
Beautiful..

rfinne_@hotmail.com :)

Intro:

e|---------------------------------4h5------|
B|-----0h2---4--5---------------------------|
G|------------------4--0h1------------------|
D|--------------------------2/4---4---------|
A|---0--------------------------------------|
E|------------------------------------------|

e|------------------------------------------|
B|-----0h2---4--5----------------5----------|
G|------------------4--0h1------------------|
D|--------------------------2/4-------------|
A|---0--------------------------------------|
E|------------------------------------------|
Добавлено: 01.03.2012
Другие материалы по этой песне:
  • Аккорды и текст

Страница создана 01.03.2012
http://primanota.ru/thomas-dybdahl/solitude-chords.htm
Привет, Гость.
Предлагаем пройти революционный курс по гитаре.
Подарок от PrimaNota.Ru, забирай!