PrimaNota.ru - самый крупный в мире бесплатный архив песенных текстов, аккордов, табулатур и нот


Thomas Dybdahl - John Wayne - таба, видео

Регистрация Запомнить меня
Войти через:  Facebook Google Twitter Vk Yandex Mail.ru

Thomas Dybdahl - John Wayne - таба, видео

Печатать
Просмотров: 112
-----------------------------------------------------------------------------
                             JOHN WAYNE - Thomas Dybdahl
-----------------------------------------------------------------------------
Tabbed by:Robert I.

Tuning: Standard (EADGBe)

e|--------------------------------------------------------------------------|
B|3p1---1---------1----3p1---1-----1-1----3p1---1---------------------------|
G|----2---2---0h2----------2---2---2-2--------2---2---0h2----3p1---1-------1|
D|----------0--------0-----------0-0-0--0-----------0------------2---2---2--|
A|---------------------------------------------------------------------0----|
E|---------------------------------------------------------0----------------|

Thats all there is to it. The main verse is just a simple mix of this.
Listen to the song for timing. Enjoy!


| /  slide up
| \  slide down
| h  hammer-on
| p  pull-off
| ~  vibrato
| +  harmonic
| x  Mute note
=============================================================================
Добавлено: 03.07.2012
Другие материалы по этой песне:
  • Аккорды и текст

Страница создана 20.04.2012
http://primanota.ru/thomas-dybdahl/john-wayne-chords.htm
Привет, Гость.
Предлагаем пройти революционный курс по гитаре.
Подарок от PrimaNota.Ru, забирай!