PrimaNota.ru - самый крупный в мире бесплатный архив песенных текстов, аккордов, табулатур и нот


Thomas Dybdahl - City Lights - таба, видео

Регистрация Запомнить меня
Войти через:  Facebook Google Twitter Vk Yandex Mail.ru

Thomas Dybdahl - City Lights - таба, видео

Печатать
Просмотров: 81
City Lights by Thomas Dybdahl

Tabbed by Ethan Starkey

Tuning: DGBGBD

Intro
----------0----------0---------0----------------
-------0---------0----------0-------------------
----0h2-------0h2--------0h2--------0--2--4/-2--
---3---------3----------3-----------0--1--3/-1--
--0-----0---0------0---0------0-----x--x--x/-x--
------------------------------------0--2--4/-2--

Verse
-----------0--------------0------          
------0--0---0-----------0-------
-----0---------0--------0--------
----1--1---------------5---------
---2--2-2-2-2-2-------5----------
---------------------5-----------

Pre-chorus
------------------0----               
-------7----7-----0----
-------7----7-----0----
------7----7------5----
-----5----4------(5)---
------------------7----

Chorus
----------------------9--------7------5---------4------2--------0--------
------------------------0--------0------0---------0------0--------0------
------------0--2--4-------0--------0------0---------0------0--------0----
------------0--1--3------------------------------------------------------
------------x--x--x---5------5-------5------5---------5------5-----------
------------0--2--4------------------------------------------------------
"look at me go ho ho ho"


before you head back to the verse be sure to slide the triad
----------------
----------------
----0--2--4/-2--
----0--1--3/-1--
----x--x--x/-x--
----0--2--4/-2--
                "these dishes wont clean themselves and i got work..."                 


and the last time you must add a little something before the bridge
Chorus/Bridge
--------------9--------7------5---------4------2--------0----------0-----------
----------------0--------0------0---------0------0--------0-------0------------
----0--2--4-------0--------0------0---------0------0--------0----0-------------
----0--1--3-----------------------------------------------------x--------------
----x--x--x---5------5-------5------5---------5------4---------2---------------
----0--2--4--------------------------------------------------------------------

---------------------------0-----------------------0-
------------------------0--------------------------0-
--------------------0h2----------7-0-------------0---
-------------------0-----------------7h-8-------8----
-2/-4/-2p0--------x-------------------------9--9-----
-----------h2-p0-2-------2---0-0----------7---7------

If anyone can watch the Morning Becomes Eclectic with him and figure out the chorus and the lead into the
bridge the way he does it and update this, thatd be great (its the last song). I chose to tab it and the 
2nd chord in the bridge differently for ease (and 99% of people wouldnt either).

Intro x2
verse
intro 
verse
pre chorus x2
chorus
verse 
intro x2
verse
intro
verse
pre chorus x2
chorus/bridge
pre chorus
chorus
verse
intro x2

LYRICS:

Slugging it out in the waste land
And there ain't nothing new.
Keeping my weight on the good side
And there ain't nothing new.

Oh, you couldn't believe the things that I could do
If someone gave me a shot what I could prove
Look at me go-oh-oh
But these dishes won't clean themselves
And I've got to work in the early morning.

Waiting it out in the heartland
And they keep rushing through.
Keeping my eyes on the off-ramp
But they keep rushing through.

Oh, you wouldn't believe the things that I would do
To get just one good shot at something new.
Look at me go-oh-oh

Those city lights would tear us apart
These crazy dreams, you know them by heart

Oh, you wouldn't believe the things that I would do
To get just one good shot at something new.
Look at me go-oh-oh
But these dishes won't clean themselves
And I've got to work in the early morning.
Добавлено: 26.06.2016
Другие материалы по этой песне:
  • Аккорды и текст

Страница создана 26.06.2016
http://primanota.ru/thomas-dybdahl/city-lights-chords.htm
Привет, Гость.
Предлагаем пройти революционный курс по гитаре.
Подарок от PrimaNota.Ru, забирай!