PrimaNota.ru - самый крупный в мире бесплатный архив песенных текстов, аккордов, табулатур и нот


Thomas Dutronc - Silence On Tourne - аккорды и текст, видео

Регистрация Запомнить меня
Войти через:  Facebook Google Twitter Vk Yandex Mail.ru

Thomas Dutronc - Silence On Tourne - аккорды и текст, видео

Печатать
Просмотров: 38
Silence On Tourne
Thomas Dutronc
Thomas Dutronc - Silence on Tourne


INTRO
     G#m                               E
----|----------------|----------------|----------------|----------------|
----|----------------|----------------|----------------|----------------|
----|----------------|----------------|-------------H--|----------------|
----|-------------H--|-------------H--|------6-----8^9-|------6---------|
----|------------5^6-|------------5^6-|7---------------|7-----------7-6-|
2-/-|4-----7---------|4-----7---------|----------------|----------------|
Slide

 C#m                               D#7
|----------------|----------------|----------------|----------------|
|----------------|----------------|----------------|----------------|
|-------------H--|-------------H--|----------------|----------------|
|------------5^6-|------------5^6-|8---6---5-------|----------------|
|4-----7---------|4-----7---------|------------7---|6---------------|
|----------------|----------------|----------------|----------------|


G#m            E                    C#m      D#7
    Silence on tourne, on tourne en rond


VERSE:
G#m 
  Si on vivait dans un film
E
  Genre Hollywood
C#m                    D#7
  Loin du quotidien anonyme
G#m
  J'lancerais le regard ultime
E
  De Clint Eastwood
C#m
  J'défendrais les victimes
   D#7
En jouant d'm a carabine
G#m
  J'aurais toujours le smoking
E
  La limousine
G#m                         D#7
  Toujours la réplique assassine
G#m
  Même avec douze balles dans l'corps
E
  A moitié mort
C#m
  J'embrass'rais quelques blondes
 D#7
Avant d'sauver le monde


CHORUS:
G#m         E
Rêver qu'on abandonne
C#m         D#7
Les scénars à la gomme
G#m       E
Et couper au montage
C#m
Nos manques de courage
    D#7
Nos petits naufrages

G#m            E                    C#m      D#7
Silence on tourne, on tourne en rond
Action!


VERSE:
G#m 
La nuit défile en voiture
E
Devant les phares
C#m                   
J'pense aux avants
 D#7
J'pense aux trop tard
G#m 
C'est un visage dans la brume
E
Dans un nuage
C#m                   
Ton regard qui m'poursuit
 D#7
Mon âme qui se consume

CHORUS:
G#m         E
Rêver qu'on abandonne
C#m         D#7
Les bouchons les klaxons
G#m       E
Rêver du Grand Canyon
C#m
Revolver et Stetson
    D#7
Mon nom c'est personne



Instrumental: A      G#m      E  C#  D#7 (E7) D#7 (E7)) D#7


VERSE:
G#m
J'ai confondu les bobines
E
Fermé les yeux
C#m                          D#7
Je n'ai rien compris au vrai film
G#m
J'aime pas les fins à l'eau d'rose
         E
Oui mais pourtant
               C#m                         
J'mets tes sourires su pause
   D#7
Et tout est comme avant


CHORUS:
G#m         E
Rêver qu'on abandonne
C#m         D#7
Les scénars à la gomme
G#m       E
Et couper au montage
C#m
Nos manques de courage
    D#7
Nos petits naufrages


G#m       E
Rêver du Grand Canyon
C#m
Revolver et Stetson
    D#7
Mon nom c'est personne
Добавлено: 08.12.2015
Вам также может быть интересно:
Другие материалы по этой песне:
  • Аккорды и текст

Страница создана 08.12.2015
http://primanota.ru/thomas-dutronc/silence-on-tourne-chords.htm
Привет, Гость.
Предлагаем пройти революционный курс по гитаре.
Подарок от PrimaNota.Ru, забирай!