PrimaNota.ru - самый крупный в мире бесплатный архив песенных текстов, аккордов, табулатур и нот


This Years Winner Is - Raise The Stakes - таба, видео

Регистрация Запомнить меня
Войти через:  Facebook Google Twitter Vk Yandex Mail.ru

This Years Winner Is - Raise The Stakes - таба, видео

Печатать
Просмотров: 78
Raise The Stakes

Ben

eb------------------------------------------------------|
bb------------------------------------------------------|
gb------11-------7-7-7---------12----------7-7-7--------|
db------------------------------------------------------|
ab--00--9----00--5-5-5----00---10----00---5-5-5---------|
db--00-------00-----------00---------00-----------------|

Times 4 (Variate with open chord on the end second time)

Main Riff

eb--------------------------------------------------------------------------|
bb--3-----------------------------------------------------------------------|
gb--2-------------------------------------------------7---9-9---------------|
db--0--00000---00000000--0----5---55555--55555555--5---7-7------------------|
ab--0--00000---00000000--0----5---55555--55555555--5---7-7------------------|
db--0--00000---00000000--0----5---55555--55555555--5---7-7------------------|

eb-------------------------------------------------------------------------|
bb--3----------------------------------------------------------------------|
gb--2-------------------------------------------------7---9-9--------------|
db--0--00000---00000000--0----5---55555--55555555--5---7-7-----------------|
ab--0--00000---00000000--0----5---55555--55555555--5---7-7-----------------|
db--0--00000---00000000--0----5---55555--55555555--5---7-7-----------------|


eb----------------------------------------------------------------------------|
bb--3-------------------------------------------------------------------------|
gb--2---------------------------------------------------7---9-9---------------|
db--0--00000---0000---------0----5---55555--55555555--5---7-7-----------------|
ab--0--00000---0000---5*----0----5---55555--55555555--5---7-7-----------------|
db--0--00000---0000---------0----5---55555--55555555--5---7-7-----------------|

eb-------------------------------------------------------------------------|
bb--3----------------------------------------------------------------------|
gb--2-------------------------------------------------7---9-9--------------|
db--0--00000---00000000--0----5---55555--55555555--5---7-7-----------------|
ab--0--00000---00000000--0----5---55555--55555555--5---7-7-----------------|
db--0--00000---00000000--0----5---55555--55555555--5---7-7-----------------|

eb------------------------------------------------------------------------|
bb--3---------------------------------------------------------------------|
gb--2-------------------------------------------------7---9-9-------------|
db--0--00000---00000000--0----5---55555--55555555--5---7-7----------------|
ab--0--00000---00000000--0----5---55555--55555555--5---7-7----------------|
db--0--00000---00000000--0----5---55555--55555555--5---7-7----------------|

eb----------------------------------------------------------------------------|
bb----------------------------------------------------------------------------|
gb-------------------------------------------------------7---9-9--------------|
db-------------0-0-0---555--(555)--5---55555--55555555--5---7-7---------------|
ab---12\---00--0-0-0---555--(555)--5---55555--55555555--5---7-7---------------|
db---12\---00--0-0-0---555--(555)--5---55555--55555555--5---7-7---------------|

(Brackets Ethan Plays)

eb-------------------------------------------------------------------------|
bb--3----------------------------------------------------------------------|
gb--2-------------------------------------------------7---7-7--------------|
db--0--00000---00000000--0----5---55555--55555555--5---5-5-----------------|
ab--0--00000---00000000--0----5---55555--55555555--5---5-5-----------------|
db--0--00000---00000000--0----5---55555--55555555--5---5-5-----------------|

End

Raise The Stakes

Ethan

Nothing until the main riff

Main Riff

eb-------------------------------------------------------------------|
bb-------------------------------------------------------------------|
gb--11---7-7-7---7-9-9---12--7-7-7---7--9-9--------------------------|
db-------------------------------------------------------------------|
ab---9---5-5-5---5-7-7---10--5-5-5---5--7-7--------------------------|
db-------------------------------------------------------------------|

eb-------------------------------------------------------------------|
bb-------------------------------------------------------------------|
gb--11---7-7-7---7-9-9---12--7-7-7---7--9-9--------------------------|
db-------------------------------------------------------------------|
ab---9---5-5-5---5-7-7---10--5-5-5---5--7-7--------------------------|
db-------------------------------------------------------------------|

eb-------------------------------------------------------------|
bb-------------------------------------------------------------|
gb---11--7-7-------7-9-9---12--7-7-7--7-9-9--------------------|
db-------------7*----------------------------------------------|
ab----9--5-5-------5-7-7---10--5-5-5--5-7-7--------------------|
db-------------------------------------------------------------|

eb-------------------------------------------------------------------|
bb-------------------------------------------------------------------|
gb--11--7-7-7---7-9-9---12--7-7-7---7--9-9---------------------------|
db-------------------------------------------------------------------|
ab---9---5-5-5---5-7-7---10--5-5-5---5--7-7--------------------------|
db-------------------------------------------------------------------|

eb-------------------------------------------------------------------|
bb-------------------------------------------------------------------|
gb--11--7-7-7---7-9-9---12--7-7-7---7--9-9---------------------------|
db-------------------------------------------------------------------|
ab---9---5-5-5---5-7-7---10--5-5-5---5--7-7--------------------------|
db-------------------------------------------------------------------|

eb-------------------------------------------------------------------|
bb-------------------------------------------------------------------|
gb---------------------------------12--7-7-7---7--9-9----------------|
db-------------0-0-0---(555)--555------------------------------------|
ab---12\---00--0-0-0---(555)--555--10--5-5-5---5--7-7----------------|
db---12\---00--0-0-0---(555)--555------------------------------------|

(Brackets Ben plays)

eb---------------------------------------------------------|
bb---------------------------------------------------------|
gb--11--7-7-7---7-9-9---12--7-7-7---7--7-7-----------------|
db---------------------------------------------------------|
ab---9---5-5-5---5-7-7---10--5-5-5---5--5-5----------------|
db---------------------------------------------------------|

End
Добавлено: 21.10.2013
Другие материалы по этой песне:
  • Аккорды и текст

Страница создана 21.10.2013
http://primanota.ru/this-years-winner-is/raise-the-stakes-chords.htm
Привет, Гость.
Предлагаем пройти революционный курс по гитаре.
Подарок от PrimaNota.Ru, забирай!