PrimaNota.ru - самый крупный в мире бесплатный архив песенных текстов, аккордов, табулатур и нот


This Years Winner Is - Im Everybodys Nobody - таба, видео

Регистрация Запомнить меня
Войти через:  Facebook Google Twitter Vk Yandex Mail.ru

This Years Winner Is - Im Everybodys Nobody - таба, видео

Печатать
Просмотров: 113
Уроки эстрадного вокала в Санкт-Петербурге
This Years Winner Is - I'm Everybody's Nobody

www.facebook.com/thisyearswinneris

http://www.youtube.com/watch?v=zixzELCA5vc

Ben (Acoustic)

Intro

eb---0-----0-----0------0-------------------------------|
bb---3-----3-----0------0-------------------------------|
gb---2-----2----11------7-------------------------------|
db---0-----2-----0------0-------------------------------|
ab---0-----0-----0------0-------------------------------|
db---0-----0-----9------5-------------------------------|

Verse

eb----0---0---0----0------------------------------------------|
bb----3---3---3----3------------------------------------------|
gb----2---2---2----2------------------------------------------|
db----0---0---0----2------------------------------------  x 2-|
ab----0---4---2----0------------------------------------------|
db----0-------------------------------------------------------|

eb--0--0-------0---0------------------------------------|
bb--0--0-------0---0------------------------------------|
gb--7--9-------7---9------------------------------------|
db--0--0-------0---0------------------------------------|
ab--0--0-------0---0------------------------------------|
db--5--7-------5---7------------------------------------|

Chorus

eb---0-----0-----0------0--------------------------------|
bb---0-----0-----0------0--------------------------------|
gb--14-----9----11------7--------------------------------|
db---0-----0-----0------0--------------------------------|
ab---0-----0-----0------0--------------------------------|
db--12-----7-----9------5--------------------------------|

Break

eb--------------------------------------------------------------------------------|
bb--------------------------------------------------------------------------------|
gb----777------6---999--------7---11-11-11-----9--11-11---11---6-7-6--------------|
db----000---7------000----7--------0--0--0---7-----0--0----0-----------7----------|
ab----000----------000-------------0--0--0----------0--0----0---------------------|
db----555----------777-------------9--9--9----------9--9----9---------------------|

Interlude

eb--------------------------------------------------------|
bb--------------------------------------------------------|
gb----7---9---11------------------------------------------|
db----0---0----0------------------------------------------|
ab----0---0----0------------------------------------------|
db----5---7----9------------------------------------------|

Last acoustic chords

eb---0---0--------------------------------------------|
bb---3---3--------------------------------------------|
gb---2---2--------------------------------------------|
db---0---2--------------------------------------------|
ab---0---0--------------------------------------------|
db---0---0--------------------------------------------|

Band Outro

eb-----------------------------------------|
bb-----------------------------------------|
gb-----------------------------------------|
db---99999999--55555555--------------------|
ab---99999999--55555555--------------------|
db---99999999--55555555--------------------|

eb------------------------------------------------------|
bb------------------------------------------------------|
gb------------------------------------------------------|
db-----00000000--77777777--99999999-555555555-----------|
ab-----00000000--77777777--99999999-555555555-----------|
db-----00000000--77777777--99999999-555555555-----------|

End

eb---------------------------------------------------|
bb---------------------------------------------------|
gb---------------------------------------------------|
db--0------------------------------------------------|
ab--0------------------------------------------------|
db--0------------------------------------------------|

Lead Outro

eb------------10------------------------------------|
bb-------10------10---------------------------------|
gb----7---------------------------------------------|
db--------------------------------------------------|
ab--------------------------------------------------|
db--------------------------------------------------|
Добавлено: 16.09.2013
Вам также может быть интересно:
Другие материалы по этой песне:
  • Аккорды и текст

Страница создана 16.09.2013
http://primanota.ru/this-years-winner-is/im-everybodys-nobody-chords.htm
Привет, Гость.
Предлагаем пройти революционный курс по гитаре.
Подарок от PrimaNota.Ru, забирай!