PrimaNota.ru - самый крупный в мире бесплатный архив песенных текстов, аккордов, табулатур и нот


This Will Destroy You - A Three-legged Workhorse - таба, видео

Регистрация Запомнить меня
Войти через:  Facebook Google Twitter Vk Yandex Mail.ru

This Will Destroy You - A Three-legged Workhorse - таба, видео

Печатать
Просмотров: 166
Band: This Will Destroy You
Album: This Will Destroy You
Track: A Three-Legged Workhorse
Tuning: Drop C#

Note: Here is full Jeremy's part. Use delay during the whole song.


  (01:41)

|-----------------------------------------------|
|----------------3-------------------------5----|
|------------0-------4----------5---------------|
|--------4--------------------------------------|
|-------------------------------0----------3----|
|----2---------------5--------------------------|



  (02:50)

|-----------------------------------------------|
|----8----------12------13---7----------5-------|
|-----------------------------------------------|
|-----------------------------------------------|
|----7----------10-----------5----------3-------|
|-----------------------------------------------|



  (03:20)

|-----------------------------------------------|
|----------------3-------------------------5----|
|------------0-------4----------5---------------|
|--------4--------------------------------------|
|-------------------------------0----------3----|
|----2---------------5--------------------------|



  (04:29)

Note: Sometimes Jeremy inserts some notes on A# string in the end of chords (listen track)

|-----------------------------------------------|
|----8----------12------13---7------3---5-------|
|-----------------------------------------------|
|-----------------------------------------------|
|----7----------10-----------5------2---3-------|
|-----------------------------------------------|



  (05:37)

|----------------------------------------------------------|
|----8--8--8--8--12--12--12--13--7--7--7--3--5--5--5--5----|
|----------------------------------------------------------|
|----------------------------------------------------------|
|----7-----------10--------------5--------2--3-------------|
|----------------------------------------------------------|



  (06:15)

|----------------------------------------|
|----5------12---7------13---8------1----|
|----------------------------------------|
|----------------------------------------|
|----3------10---5------12---7------0----|
|----------------------------------------|



  (07:18)

Note: Every time Jeremy plays differently (listen track if you want to be accurate)

|-----------------------------------------------------------------------|
|----5--------12-----7--------13-----8--------1--------1--0-----0-------|
|-------0---------0-----0---------0-----0--------0-----------0-----0----|
|---------------------------------------------------2-------------------|
|----3--------10-----5--------12-----7--------0-------------------------|
|-----------------------------------------------------------------------|
Добавлено: 12.07.2013
Другие материалы по этой песне:
  • Аккорды и текст

Страница создана 12.07.2013
http://primanota.ru/this-will-destroy-you/a-three-legged-workhorse-chords.htm
Привет, Гость.
Предлагаем пройти революционный курс по гитаре.
Подарок от PrimaNota.Ru, забирай!