PrimaNota.ru - самый крупный в мире бесплатный архив песенных текстов, аккордов, табулатур и нот


This Wild Life - If It Means A Lot To You - таба, видео

Регистрация Запомнить меня
Войти через:  Facebook Google Twitter Vk Yandex Mail.ru

This Wild Life - If It Means A Lot To You - таба, видео

Печатать
Просмотров: 842
This Wild Life - If It Means A Lot To You (Original Song By A Day To Remember)
Standart Tuning (E, A, D, G, B, e)
Capo on the 3rd Fret

#This is my first tab,i tabbed this by watched This Wild Life Covering ADTR.
http://www.youtube.com/watch?v=n6KrUt7HMeM
If you have any changes,you can send me email.avaeve71@gmail.com




Intro.
Guitar 1 :
e|---3----3----3----3------------------|
B|---3----3----3----3------------------|
G|---0----0----0----2------------------|  2x 
D|---2---------0----0------------------|
A|---2---------2----0------------------|
E|-------------3----3------------------|

Guitar 2 :
e|------------------------3------------------------------------|
B|------------------------3------------------------------------|
G|--2/4-2-0----2/4-2-0-------2/4-2-0---------------------------|
D|----------2----------2-------------2---4-5-5-4-4-5-5-4-4-5---|  2x
A|-------------------------------------------------------------|
E|-------------------------------------------------------------|
                        Or
e|------------------------3------------------------------------|
B|------------------------3------------------------------------|
G|--2-4-2-0----2-4-2-0-------2-4-2-0---------------------------|
D|----------2----------2-------------2---4-5-5-4-4-5-5-4-4-5---|  2x
A|-------------------------------------------------------------|
E|-------------------------------------------------------------|


Verse.
Guitar 1 : 
"And hey darling.."-"Come back home till they're singing.."
e|---3----3----3------------------|
B|---3----3----3------------------|
G|---0----0----2------------------|  
D|---2----0----0------------------|
A|---2----2----0------------------|
E|--------3----3------------------|

Guitar 2 :
#I'm not sure about this part,send me email if you have any correct
"Yeah, I want it but no.." - "til they're singin"
e|-------------|----------------------|
B|----------3--|--------------------3-|
G|------2------|------2---------2-----|  7x
D|--4-4---4----|--4-4---4---4-4---4---|
A|-------------|----------------------|
E|-------------|----------------------|
                   

Pre-Chorus.
Guitar 1 :
"La.. la la la la" 
e|---3----3----3-------------------|
B|---3----3----3-------------------|
G|---0----2----0-------------------| here..strum each chord only once !
D|---2----0----2-------------------|
A|---3----0----2-------------------|
E|--------3------------------------|

Guitar 2 :
#I'm not sure about this part,send me email if you have any correct
e|--------------|
B|--------------|
G|------5-------|  
D|------5-------|
A|--------------|
E|--------------|


Chorus.
Guitar 1 :
"Til everyone is singing.."-"Well it might be for the best.."
e|---3------3---3---3--------3---|
B|---3------3---3---3--------3---|
G|---0------2---0---0--(2x)--2---|  
D|---0------0---2---2--------0---|
A|---2------0---2---3--------0---|
E|---3------3----------------3---|

Guitar 2 :
e|--3-------3------|-3---3---3---------|
B|----3-------3----|---3---3---3-------|
G|------2-------2--|---------2---2-----|   A lot !  
D|-----------------|-------------------|
A|-----------------|-------------------|
E|-----------------|-------------------|

     

Back to Intro.
Guitar 1 :
e|---3----3----3----3------------------|
B|---3----3----3----3------------------|
G|---0----0----0----2------------------|  1x
D|---2---------0----0------------------|
A|---2---------2----0------------------|
E|-------------3----3------------------|

Guitar 2 :
e|------------------------3-------------------------------|
B|------------------------3-------------------------------|
G|--2/4-2-0----2/4-2-0-------2/4-2-0----------------------|
D|----------2----------2-------------2---4-5-5-4-4--5-4---|  1x
A|--------------------------------------------------------|
E|--------------------------------------------------------|
                        Or
e|------------------------3------------------------------------|
B|------------------------3------------------------------------|
G|--2-4-2-0----2-4-2-0-------2-4-2-0---------------------------|
D|----------2----------2-------------2---4-5-5-4-4-5-5-4-4-5---|  1x
A|-------------------------------------------------------------|
E|-------------------------------------------------------------|

Verse 2.
Guitar 1 :
"And hey sweetie.."-"But I know you can't come home 'til they're singin.."
e|---3----3----3------------------|
B|---3----3----3------------------|
G|---0----0----2------------------|  
D|---2----0----0------------------|
A|---2----2----0------------------|
E|--------3----3------------------|

Guitar 2 :
"Yeah you want it but I can't help it.."-"til they're singin.."
e|-------------|----------------------|
B|----------3--|--------------------3-|
G|------2------|------2---------2-----|  7x
D|--4-4---4----|--4-4---4---4-4---4---|
A|-------------|----------------------|
E|-------------|----------------------|



Pre-Chorus 2.
Guitar 1 :
"La.. la la la la"-"Til Everyone Singin"..-"La.. la la la la" 
e|---3---3---3------3------3---3---3----|
B|---3---3---3------3------3---3---3----|
G|---0---2---0------0------0---2---0----| strum once for each chord
D|---2---0---2------0------2---0---2----|
A|---3---0---2------2------3---0---2----|
E|-------3----------3----------3--------|

Guitar 2 :
e|--------------|
B|--------------|
G|------5-------|  
D|------5-------|
A|--------------|
E|--------------|



Chorus2.
Guitar 1 :
"If you can wait till I get home.."-"Well it might be for the best.."
e|---3------3---3---3--------3---3---|
B|---3------3---3---3--------3---3---|
G|---0------2---0---0--(2x)--2---0---|  
D|---0------0---2---2--------0---2---|
A|---2------0---2---3--------0---3---|
E|---3------3----------------3-------|

Guitar 2 :
e|--3-------3------|-3---3---3---------|
B|----3-------3----|---3---3---3-------|
G|------2-------2--|---------2---2-----|   A lot !  
D|-----------------|-------------------|
A|-----------------|-------------------|
E|-----------------|-------------------|



Pre-Outro.
Guitar 1 :
"You know you can't give me what I need.."-"Is this really happening.."
e|--3-------3-------3-------3------|
B|--3-------3-------3-------3------|
G|--0--(1x)-0--(2x)-0--(2x)-2------|   
D|--2-------0-------2-------0------|
A|--3-------2-------2-------0------|
E|----------3---------------3------|
"I swear I'll never be happy again.."-"We knew it'd happen eventually.."
e|--3-------3-------3-------3------|
B|--3-------3-------3-------3------|
G|--0-------0-------0-------2------|   
D|--2-------0-------2-------0------|
A|--3-------2-------2-------0------|
E|----------3---------------3------|

Guitar 2 :
"I swear I'll never be happy again.."-"We knew it'd happen eventually.."
e|-------------|----------------------|
B|----------3--|--------------------3-|
G|------2------|------2---------2-----|  7x
D|--4-4---4----|--4-4---4---4-4---4---|
A|-------------|----------------------|
E|-------------|----------------------|



Outro.
Guitar 1.
"La, la la la,la la la..,-"Now Everyone singin !"-"La, la la la,la la la.."-"Now 
Everyone singin !.."
e|---3---3---3------3------3---3---3---3--|
B|---3---3---3------3------3---3---3---3--|
G|---0---2---0------0------0---2---0---0--| 
D|---2---0---2------0------2---0---2---0--|
A|---3---0---2------2------3---0---2---2--|
E|-------3----------3----------3-------3--|
"If you can wait till I get home.."-"That we can make this last.."
e|---3---3---3---3-------3-------|
B|---3---3---3---3-------3-------|
G|---0---2---0---0--(2x)-0--(1x)-|  7x
D|---2---0---2---0-------2-------|
A|---3---0---2---2-------3-------|
E|-------3-------3---------------|


___________________________________________________________________________________
This Wilf Life Covering If Means A Lot To You (Original Song By A Day To Remember)

Lyric :
And hey darling
I hope you're good tonight
And I know you don't feel right when I'm leaving
Yeah I want it but no I don't need it
Tell me something sweet to get me by
'Cause I can't come back home till they're singing

La, la la la la la la

'Til everyone is singing
[Lyrics from: http://www.lyricsmode.com/lyrics/a/a_day_to_remember/if_it_means_a_lot_to_you.html ]
If you can wait till I get home
Then I swear to you
That we can make this last
(La la la)
If you can wait till I get home
Then I swear come tomorrow
This will all be in our past
Well it might be for the best

And hey sweetie
Well I need you here tonight
And I know that you don't want to be leaving me
Yeah you want it but I can't help it
I just feel complete when you're by my side
But I know you can't come home 'til they're singing

La, la la la la la la

'Til everyone is singing

La, la la la la la la

If you can wait till I get home
Then I swear to you
That we can make this last
(La la la)
If you can wait till I get home
Then I swear come tomorrow
This will all be in our past
Well it might be for the best

You know you can't give me what I need
And even though you mean so much to me
I can't wait through everything

Is this really happening?
I swear I'll never be happy again
And don't you dare say we can just be friends
I'm not some boy that you can sway
We knew it'd happen eventually

La, la la la la la la

Now Everybody's singing

La, la la la la la la

If you can wait till I get home
Then I swear to you
That we can make this last
Добавлено: 08.09.2013
Другие материалы по этой песне:
  • Аккорды и текст

Страница создана 08.09.2013
http://primanota.ru/this-wild-life/if-it-means-a-lot-to-you-chords.htm
Привет, Гость.
Предлагаем пройти революционный курс по гитаре.
Подарок от PrimaNota.Ru, забирай!