PrimaNota.ru - самый крупный в мире бесплатный архив песенных текстов, аккордов, табулатур и нот


This Town Needs Guns - If I Sit Still Maybe Ill Get Out Of Here - таба, бас-таба, видео

Регистрация Запомнить меня
Войти через:  Facebook Google Twitter Vk Yandex Mail.ru

This Town Needs Guns - If I Sit Still Maybe Ill Get Out Of Here - таба, бас-таба, видео

Печатать
Просмотров: 158
Song: "If I Sit Still, Maybe I'll Get Out of Here"
Band: This Town Needs Guns
Tabbed by: Travis Smith
Email: smith.trav92@gmail.com

Tuning: CGDGBD (CAPO 6th fret)

important:

You may want to watch someone play this one youtube. 

| T  tap right
| t   tap left

Intro:
d|---------------------------------------------------------------|
B|-0--------T8----t3h0-------------------------------------------|
G|-----------T7---t4--h0-----------T7----------------------------|
D|----t4h5-----T7----------------t5--------------T7/9p0----------|x10
G|-0-----------------------T7-------------t4---------------------|
C|----------------------------0h4------0h2-----------------------|

Verse:
d|----------------------------------T9/7-------------------------|
B|-0--------T8p3p0------------------------T7---------------------|
G|-----------------t4-T7/9p0-------------------------------------|
D|----t4h5-------------------------------------------------------|
G|-0-------------------------------------------------------------|
C|-------------------------0--t4\2-------------------------------|

d|---------------------------------------------------------------|
B|-0--------T8p3p0-------------------T7/8\7/8--------------------|
G|-----------------t4-T7/9p0-------------------------------------|
D|----t4h5-------------------------------------------------------|
G|-0-------------------------------------------------------------|
C|-------------------------0--t4\2-------------------------------|

d|----------------------------------T9/7-------------------------|
B|-0--------T8p3p0------------------------T7---------------------|
G|-----------------t4-T7/9p0-------------------------------------|
D|----t4h5-------------------------------------------------------|
G|-0-------------------------------------------------------------|
C|-------------------------0--t4\2-------------------------------|

d|---------------------------------------------------------------|
B|-0--------T8p3p0-----------------------------------------------|
G|-----------------t4-T7/9p0--------T7/9-------------------------|
D|----t4h5-------------------------------T9/7--------------------|X2
G|-0-------------------------------------------------------------|
C|-------------------------0--t4\2-------------------------------|

Intro:
D|---------------------------------------------------------------|
B|-0--------T8----t3h0-------------------------------------------|
G|-----------T7---t4--h0-----------T7----------------------------|
D|----t4h5-----T7----------------t5--------------T7/9p0----------|x8
G|-0-----------------------T7-------------t4---------------------|
C|----------------------------0h4------0h2-----------------------| 

Pre-chorus:
d|---------------------------------------------------------------|
B|--------0------------------------7-----------------------------|
G|--------4------------------------7-----------------------------|
D|--------5------------------------7-----------------------------|x1
G|---------------------------------------------------------------|
C|--------4------------------------6-----------------------------|

d|-9-----9------9-----9------12-----12-------12-----12-----------|
B|---0-----0------0-----0-------0------0--------0------0---------|
G|-----0-----0------0-----0-------0------0--------0------0-------|
D|---------------------------------------------------------------|
G|-9---------9--9---------9---11----------11--11-----------------|
C|---------------------------------------------------------------|

d|-5-----5------5-----5------5-----5------5-----5----------------|
B|---0-----0------0-----0------0-----0------0-----0--------------|
G|-----0-----0------0-----0------0-----0------0-----0------------|
D|---------------------------------------------------------------|x4
G|---------------------------------------------------------------|
C|-5------------5------------5------------5----------------------|

Chorus:
d|---0-----------------0-----------------------------------------|
B|----3---0-------8------0--------0-----0------------------------|
G|-----2----0------0-------0------0-----0--------4\2p0-----------|
D|------------0-----10----------9------4---------4\2p0-----------|
G|-0-------------0-----------------------------0-----------------|
C|----------------------------9------4------0--------------------|

d|---0-----------------0-----------------------------------------|
B|----3---0-------8------0--------0-----0------------------------|
G|-----2----0------0-------0------0-----0--2/4\2---0-------------|
D|------------0-----10----------9------4---2/4\2-----0-----------|
G|-0-------------0-----------------------------------------------|
C|----------------------------9------4---------------------------|

d|---0-----------------0-----------------------------------------|
B|----3---0-------8------0--------0-----0------------------------|
G|-----2----0------0-------0------0-----0--------4\2p0-----------|
D|------------0-----10----------9------4---------4\2p0-----------|
G|-0-------------0-----------------------------0-----------------|
C|----------------------------9------4------0--------------------|

d|---0-----------------0-----------------------------------------|
B|----3---0-------8------0--------0-----0------------------------|
G|-----2----0------0-------0------0-----0--------4\2p0-----------|
D|------------0-----10----------9------4---------4\2p0-----------|
G|-0-------------0-----------------------------0-----------------|
C|----------------------------9------4------0--------------------|

d|-0-----0-----0-----0----0----0---------------------------------|
B|--0------0----0------0---0---0---------------------------------|
G|---0-----------0----------0--0---------------------------------|
D|-2---2-----2-----2-----2-----2---------------------------------|
G|---------------------------------------------------------------|
C|---------------------------------------------------------------|

Verse:
d|----------------------------------T9/7-------------------------|
B|-0--------T8p3p0------------------------T7---------------------|
G|-----------------t4-T7/9p0-------------------------------------|
D|----t4h5-------------------------------------------------------|
G|-0-------------------------------------------------------------|
C|-------------------------0--t4\2-------------------------------|

d|---------------------------------------------------------------|
B|-0--------T8p3p0-------------------T7/8\7/8--------------------|
G|-----------------t4-T7/9p0-------------------------------------|
D|----t4h5-------------------------------------------------------|
G|-0-------------------------------------------------------------|
C|-------------------------0--t4\2-------------------------------|

d|----------------------------------T9/7-------------------------|
B|-0--------T8p3p0------------------------T7---------------------|
G|-----------------t4-T7/9p0-------------------------------------|
D|----t4h5-------------------------------------------------------|
G|-0-------------------------------------------------------------|
C|-------------------------0--t4\2-------------------------------|

d|---------------------------------------------------------------|
B|-0--------T8p3p0-----------------------------------------------|
G|-----------------t4-T7/9p0--------T7/9-------------------------|
D|----t4h5-------------------------------T9/7--------------------|X2
G|-0-------------------------------------------------------------|
C|-------------------------0--t4\2-------------------------------|

Pre-chorus:
d|---------------------------------------------------------------|
B|--------0------------------------7-----------------------------|
G|--------4------------------------7-----------------------------|
D|--------5------------------------7-----------------------------|x1
G|---------------------------------------------------------------|
C|--------4------------------------6-----------------------------|

d|-9-----9------9-----9------12-----12-------12-----12-----------|
B|---0-----0------0-----0-------0------0--------0------0---------|
G|-----0-----0------0-----0-------0------0--------0------0-------|
D|---------------------------------------------------------------|
G|-9---------9--9---------9---11----------11--11-----------------|
C|---------------------------------------------------------------|

d|-5-----5------5-----5------5-----5------5-----5----------------|
B|---0-----0------0-----0------0-----0------0-----0--------------|
G|-----0-----0------0-----0------0-----0------0-----0------------|
D|---------------------------------------------------------------|x4
G|---------------------------------------------------------------|
C|-5------------5------------5------------5----------------------|

Chorus:
d|---0-----------------0-----------------------------------------|
B|----3---0-------8------0--------0-----0------------------------|
G|-----2----0------0-------0------0-----0--------4\2p0-----------|
D|------------0-----10----------9------4---------4\2p0-----------|
G|-0-------------0-----------------------------0-----------------|
C|----------------------------9------4------0--------------------|

d|---0-----------------0-----------------------------------------|
B|----3---0-------8------0--------0-----0------------------------|
G|-----2----0------0-------0------0-----0--2/4\2---0-------------|
D|------------0-----10----------9------4---2/4\2-----0-----------|
G|-0-------------0-----------------------------------------------|
C|----------------------------9------4---------------------------|

d|---0-----------------0-----------------------------------------|
B|----3---0-------8------0--------0-----0------------------------|
G|-----2----0------0-------0------0-----0--------4\2p0-----------|
D|------------0-----10----------9------4---------4\2p0-----------|
G|-0-------------0-----------------------------0-----------------|
C|----------------------------9------4------0--------------------|

d|---0-----------------0-----------------------------------------|
B|----3---0-------8------0--------0-----0------------------------|
G|-----2----0------0-------0------0-----0--------4\2p0-----------|
D|------------0-----10----------9------4---------4\2p0-----------|
G|-0-------------0-----------------------------0-----------------|
C|----------------------------9------4------0--------------------|

d|-0-----0-----0-----0----0----0---------------------------------|
B|--0------0----0------0---0---0---------------------------------|
G|---0-----------0----------0--0---------------------------------|
D|-2---2-----2-----2-----2-----2---------------------------------|
G|---------------------------------------------------------------|
C|---------------------------------------------------------------|

Interlude:
d|-7------7------5-----p0------7------7------5-----p0------------|
B|---12-----12-----3-----p0------12-----12-----3------p0---------|
G|------0------------5--------------0------------5---------------|
D|---------------------------------------------------------------|
G|---------------------------------------------------------------|
C|-0-----------0-4-----------0-0-----------0-4-----------0-------|

d|-12-----12-----5-----p0------12-----12-----5-----p0------------|
B|----0------0-----3-----p0-------0------0-----3------p0---------|
G|------0------------5--------------0------------5---------------|
D|---------------------------------------------------------------|x6
G|---------------------------------------------------------------|
C|-0-----------0-4-----------0-0-----------0-4-----------0-------|

Chorus:
d|---0-----------------0-----------------------------------------|
B|----3---0-------8------0--------0-----0------------------------|
G|-----2----0------0-------0------0-----0--------4\2p0-----------|
D|------------0-----10----------9------4---------4\2p0-----------|
G|-0-------------0-----------------------------0-----------------|
C|----------------------------9------4------0--------------------|

d|---0-----------------0-----------------------------------------|
B|----3---0-------8------0--------0-----0------------------------|
G|-----2----0------0-------0------0-----0--2/4\2---0-------------|
D|------------0-----10----------9------4---2/4\2-----0-----------|
G|-0-------------0-----------------------------------------------|
C|----------------------------9------4---------------------------|

d|---0-----------------0-----------------------------------------|
B|----3---0-------8------0--------0-----0------------------------|
G|-----2----0------0-------0------0-----0--------4\2p0-----------|
D|------------0-----10----------9------4---------4\2p0-----------|
G|-0-------------0-----------------------------0-----------------|
C|----------------------------9------4------0--------------------|

d|---0-----------------0-----------------------------------------|
B|----3---0-------8------0--------0-----0------------------------|
G|-----2----0------0-------0------0-----0--------4\2p0-----------|
D|------------0-----10----------9------4---------4\2p0-----------|x2
G|-0-------------0-----------------------------0-----------------|
C|----------------------------9------4------0--------------------|

The end gets a little fancy, but same basic ideas. You can figure it out. 


| /  slide up
| \  slide down
| h  hammer-on
| p  pull-off
| ~  vibrato
| +  harmonic
| x  Mute note
| T  tap right
| t  tap left
Добавлено: 20.08.2013
Другие материалы по этой песне:

Страница создана 20.08.2013
http://primanota.ru/this-town-needs-guns/if-i-sit-still-maybe-ill-get-out-of-here-chords.htm
Привет, Гость.
Предлагаем пройти революционный курс по гитаре.
Подарок от PrimaNota.Ru, забирай!