PrimaNota.ru - самый крупный в мире бесплатный архив песенных текстов, аккордов, табулатур и нот


This Time Next Year - Last Call - таба, видео

Регистрация Запомнить меня
Войти через:  Facebook Google Twitter Vk Yandex Mail.ru

This Time Next Year - Last Call - таба, видео

Печатать
Просмотров: 106
Авторы: This Time Next Year

This Time Next Year
Last Call
Drop Out Of Life

C#G#C#F#A#D#

Intro
|-----------------------------------------------------------|
|-----------------------------------------------------------|
|--6-7-9-6-4-2---6-7-9-6-2-4----6-7-9-6-4-2---7-6-4-2-4-2---|
|-----------------------------------------------------------|
|-----------------------------------------------------------|
|-----------------------------------------------------------|

Verse*
|-----------------------------------------------------------|
|-----------------------------------------------------------|
|-----------------------------------------------------------|
|--7-7-7-7--2-2-2-2--4-4-4-4--5-5-5-5-----------------------|
|--7-7-7-7--2-2-2-2--4-4-4-4--5-5-5-5-----------------------|
|--7-7-7-7--2-2-2-2--4-4-4-4--5-5-5-5-----------------------|

Chorus*
|-----------------------------------------------------------|
|-----------------------------------------------------------|
|-----------7-7-7-7--4-4-4-4--------------------------------|
|--7-7-7-7--7-7-7-7--4-4-4-4--5-5-5-5-----------------------|
|--7-7-7-7--5-5-5-5--2-2-2-2--5-5-5-5-----------------------|
|--7-7-7-7--------------------5-5-5-5-----------------------|

Bridge*
|-----------------------------------------------------------|
|-----------------------------------------------------------|
|-----------------------------4-4-4-4-----------------------|
|--4-4-4-4--2-2-2-2--7-7-7-7--4-4-4-4-----------------------|
|--4-4-4-4--2-2-2-2--7-7-7-7--2-2-2-2-----------------------|
|--4-4-4-4--2-2-2-2--7-7-7-7--------------------------------|

Intro x2
Verse x4
Chorus
Intro
Verse x4
Chorus x2
Bridge x4
Chorus x4
Intro x2

* - Listen to song for strumming pattern

Youtube URL for the song:
http://www.youtube.com/watch?v=1-iweAOmYSg
Добавлено: 31.08.2013
Другие материалы по этой песне:
  • Аккорды и текст

Страница создана 31.08.2013
http://primanota.ru/this-time-next-year/last-call-chords.htm
Привет, Гость.
Предлагаем пройти революционный курс по гитаре.
Подарок от PrimaNota.Ru, забирай!