PrimaNota.ru - самый крупный в мире бесплатный архив песенных текстов, аккордов, табулатур и нот


This Time Next Year - Drop Out Of Life - аккорды и текст, таба, видео

Регистрация Запомнить меня
Войти через:  Facebook Google Twitter Vk Yandex Mail.ru

This Time Next Year - Drop Out Of Life - аккорды и текст, таба, видео

Печатать
Просмотров: 156
Авторы: This Time Next Year

Drop Out Of Life
This Time Next Year
This Time Next Year - Drop Out Of Life

Flat Tuning (the youtube seems like they are out of tune)

https://youtu.be/nHwOHJHypkE for reference

Chords
          G      C     Am     Em      D      Bm    
Eb |------3------0------0------0------2------2----------------|
Bb |------3------1------1------0------3------3----------------|
Gb |------0------0------2------0------2------4----------------|
Db |------0------2------2------2------0------4----------------|
Ab |------2------3------0------2------X------2----------------|
Eb |------3------X------X------0------X------X----------------|

~Intro~ (you'll have to watch for strumming pattern)

G    C    Am   C
 
G    C    Am   C


~Verse~

Eb |--33-X-X---------33--X-X----33--X-X------0----2-------|
Bb |--33-X-X---------33--X-X----33--X-X------0----3-------|
Gb |--00-X-X---------00--X-X----00--X-X------0-x4-2-x4----|
Db |--00-X-X---------00--X-X----00--X-X------2----0-------|
Ab |--22-X-X---------22--X-X----22--X-X------2----X-------|
Eb |--33-X-X---------33--X-X----33--X-X------0----X-------|
        I know your reasons for leaving I heard what you..

Eb |--33-X-X---------33--X-X---------------33--X-X------------0----2--------|
Bb |--33-X-X---------33--X-X---------------33--X-X------------0----3--------|
Gb |--00-X-X---------00--X-X---------------00--X-X------------0-x4-2-x4-----|
Db |--00-X-X---------00--X-X---------------00--X-X------------2----0--------|
Ab |--22-X-X---------22--X-X---------------22--X-X------------2----X--------|
Eb |--33-X-X---------33--X-X---------------33--X-X------------0----X--------|
      said          But what you failed to mention was someone else's..... 

G
bed
  
For the best last request
              Em     D        G
I think I've heard this before

Tell me that it's envy, yeah
 Em     D
Tell me so much more
C                        Am
 I let you run around and do me like this
                  C
 And now we're falling out

Eb |---------------------------------------------------|
Bb |---------------------------------------------------|
Gb |---------------------------------------------------|
Db |---------------------------------------------------|
Ab |---------------------0----2--3-- 3/5~--------------|
Eb |---------------------------------------------------|
     She's falling over this fucking prick


~Chorus~
           G
I want to drop out of life
        Am
And get on with my days
 Bm
Drop out of life
          C                          G
And have something to say when I'm dead
         Am
Well it's you
         Bm
no, not me
              C
That's gonna hurt like hell, yeah



~Intro~

G    C    Am   C
 
G    C    Am   C


~Verse~

Eb |--33-X-X---------33--X-X------33--X-X------0----2-------|
Bb |--33-X-X---------33--X-X------33--X-X------0----3-------|
Gb |--00-X-X---------00--X-X------00--X-X------0-x4-2-x4----|
Db |--00-X-X---------00--X-X------00--X-X------2----0-------|
Ab |--22-X-X---------22--X-X------22--X-X------2----X-------|
Eb |--33-X-X---------33--X-X------33--X-X------0----X-------|
        I know your  reasons for cheating this game of.....

Eb |--33-X-X---------33--X-X---------------33--X-X------------0----2--------|
Bb |--33-X-X---------33--X-X---------------33--X-X------------0----3--------|
Gb |--00-X-X---------00--X-X---------------00--X-X------------0-x4-2-x4-----|
Db |--00-X-X---------00--X-X---------------00--X-X------------2----0--------|
Ab |--22-X-X---------22--X-X---------------22--X-X------------2----X--------|
Eb |--33-X-X---------33--X-X---------------33--X-X------------0----X--------|
      roulette         Bullets     in the chamber   are   bullets in my 


 G                       Em x4   D x4
headdddddd yeeeaaahhhh
G                              Em x4   D x4
I've got nothing to sayyyyyy


C                        Am
 I let you run around and do me like this
                  C
 And now we're falling out

Eb |---------------------------------------------------|
Bb |---------------------------------------------------|
Gb |---------------------------------------------------|
Db |---------------------------------------------------|
Ab |---------------------0----2--3-- 3/5~--------------|
Eb |---------------------------------------------------|
     She's falling over this fucking prick


~Chorus~
           G
I want to drop out of life
        Am
And get on with my days
 Bm
Drop out of life
          C                          G
And have something to say when I'm dead
         Am
Well it's you
         Bm
no, not me
              C
That's gonna hurt like hell, yeah


Bridge

G       D       Em      C


G                     D                  Em                  C
I never wanted to say goodbye but there's nothing left to say

G                     D                   Em                    C
And I never wanted to leave this time but some things never change


Eb |--33-XXXXXX----33--XXXXXX----33--XXXXXX-------0----2-------|
Bb |--33-XXXXXX----33--XXXXXX----33--XXXXXX-------0----3-------|
Gb |--00-XXXXXX----00--XXXXXX----00--XXXXXX-------0-x4-2-x4----|
Db |--00-XXXXXX----00--XXXXXX----00--XXXXXX-------2----0-------|
Ab |--22-XXXXXX----22--XXXXXX----22--XXXXXX-------2----X-------|
Eb |--33-XXXXXX----33--XXXXXX----33--XXXXXX-------0----X-------|
           x6            x6            x6


G x18  Em x4    D x4


G~~ *guitar taps*

    I let you run around and do me like this

    And now we're falling out

    She's falling over this fucking prick

~Chorus~
           G
I want to drop out of life
        Am
And get on with my days
 Bm
Drop out of life
          C                          G
And have something to say when I'm dead
         Am
Well it's you
         Bm
no, not me
              C
That's gonna hurt like.....
G
drop out of life
        Am
And get on with my days
 Bm
Drop out of life
          C                          G
And have something to say when I'm dead
         Am
Well it's you
         Bm
no, not me
             C~X guitar taps.       G
That's gonna hurt like hell.....



Eb--3---------------------------------------------------------|
Bb--3---------------------------------------------------------|
Gb--0---------------------------------------------------------|
Db------------------------------------------------------------|
Ab------------------------------------------------------------|
Eb------------------------------------------------------------|
Добавлено: 27.05.2016
Другие материалы по этой песне:
  • Аккорды и текст

Страница создана 23.05.2012
http://primanota.ru/this-time-next-year/drop-out-of-life-chords.htm
Привет, Гость.
Предлагаем пройти революционный курс по гитаре.
Подарок от PrimaNota.Ru, забирай!